Song name
# A B C D E F G H I J K L M N O P Q R S T U V W X Y Z

Misc Unsigned Bands - Alex Chudnovsky - Be The One I Need tab

Help us improve GuitareTab! Take a short survey!
I thought I would tab this song because when I first watched the video it look
 quite difficult to me.

I then actually started working out how to play it, and realised it is fairly easy.

So here it is:

-------------------------------------------------------------------------------
			 Be The One I Need - Alex Chudnovsky
-------------------------------------------------------------------------------
Tabbed by: Ian Jamieson
Email: www.urbantricking.com

Tuning: Standard (Capo 4th Fret)

Intro (a)
e|--------------------------------------------------------------------------|
B|--------------------------------------------------------------------------|
G|--------------------------------------------------------------------------|
D|--2-4-2-0-2-2-4-4-2~-----------2-4-2-0-2-2-4-4-0~-------------------------|
A|----------3-3-5-5-3~-------------------3-3-5-5-2~-------------------------|
E|-----------------------------------------------3~-------------------------|

Intro (b)

e|--------------------------------------------------------------------------|
B|--------------------------------------------------------------------------|
G|--------------------------------------------------------------------------|
D|--2-4-2-0-2-2-4-4-2-22222------2-4-2-0-2-2-4-4-0-00000--------------------|
A|----------3-3-5-5-3-33333--------------3-3-5-5-2-22222--------------------|
E|-----------------------------------------------3-33333--------------------|


For the song it does part of the intro in between each chord, like this:

e|----------0-0-0-0-0000---------3-3-3-3-3333---------2-2-0-2-3322----------|
B|----------0-0-0-0-0000---------0-0-0-0-0000---------3-3-3-3-3333----------|
G|----------0-0-0-0-0000---------0-0-0-0-0000---------2-2-2-2-2222----------|
D|--2-4-2-0-2-2-2-2-2222-2-4-2-0-0-0-0-0-0000-2-4-2-0-0-0-0-0-0000----------|
A|----------2-2-2-2-2222---------2-2-2-2-2222-------------------------------|
E|----------0-0-0-0-0000---------3-3-3-3-3333-------------------------------|

e|----------0-0-0-0-0000----------------------------------------------------|
B|----------0-0-0-0-0000----------------------------------------------------|
G|----------0-0-0-0-0000----------------------------------------------------|
D|--2-4-2-0-2-2-2-2-2222----------------------------------------------------|
A|----------2-2-2-2-2222----------------------------------------------------|
E|----------0-0-0-0-0000----------------------------------------------------|


Riff           Em
In between the clouds
Riff             G
Saw you like the sun
Riff         D
Rising in my life
               Riff      Em
Now I want our lights to unite

Riff         Em
Jewel of the sky
Riff           G
Colour of this dream
Riff               D
I'll give you everything
          Riff           Em
If you'll always be this sweet

Intro (a)
Be the one I have
Intro (a)
Be the one I need
Intro (a)
Be the one I have
Intro (a)
Be the one I need

Intro (b)

Riff - Em - Riff - G - Riff - D - Riff - Em

Riff         Em
You are so serene
Riff       G
Easy to be with
Riff               D
I always feel better
        Riff      Em
After I talk with you


Riff            Em
You can make me smile
Riff          G
With your mad ideas
Riff            D
You are someone shiny
                 Riff         Em
You're someone I love to have near

Intro (a)
Be the one I have
Intro (a)
Be the one I need
Intro (a)
Be the one I have
Intro (a)
Be the one I need

And that is pretty much it!

Good luck!

| /  slide up
| \  slide down
| h  hammer-on
| p  pull-off
| ~  vibrato
| +  harmonic
| x  Mute note
===============================================================================
Related for Alex Chudnovsky - Be The One I Need tab