Song name
# A B C D E F G H I J K L M N O P Q R S T U V W X Y Z

Misc Unsigned Bands - James Small - Curiosity tab

-------------------------------------------------------------------------------
			     Curiosity  - James Small
-------------------------------------------------------------------------------
Tabbed by:James
Email:sfroxs@gmail.com

Tuning: standard

capo at 3rd fret

intro

e|-------------------------------------------------------------------||
B|--------------------------0-----------------------------0-------0--||
G|------0-------0-------0-----0-------0-------0-------0-----0---0-0--|| x3
D|----0---0---0---0---0---0-----0---0---0---0---0---0---0-----0---0--||
A|--2-------2-------3-------------2-------2-------3---------------3--||
E|-------------------------------------------------------------------||


Tap to rate this tab
# A B C D E F G H I J K L M N O P Q R S T U V W X Y Z