Guitaretab - guitar tabs
Song name
# A B C D E F G H I J K L M N O P Q R S T U V W X Y Z

Misc Unsigned Bands - Your First Time - Lets Get Barry White Tonight tab

----------------------------------------------------------------------------
             Your First Time - LET'S GET BARRY WHITE TONIGHT!
----------------------------------------------------------------------------
Music + Lyrics: A. Dodd, N. Pankow, A. McIntosh
Tabbed by: N. Pankow
Email: yourfirsttimeband@hotmail.com
Tuning: DADGBE (Drop D)
www.myspace.com/yourfirsttimeband

E---------------------------------------------------------------------------|
B---------------------------------------------------------------------------|
G---------------5555555555555555-----4444444444444444-----------------------|
D---------------5555555555555555-----4444444444444444-----7777777777777777--|
A---------------3333333333333333-----2222222222222222-----7777777777777777--|
D---------------------------------------------------------7777777777777777--|

E---------------------------------------------------------------------------|
B---------------------------------------------------------------------------|
G---------------------------------------------------------------------------|
D--------5---7--------7--7-------------5---7--------7--7--------------------|
A--------5---7--------7--7-------------5---7--------7--7--------------------|
D--------5---7--------7--7-------------5---7--------7--7--------------------|

E---------------------------------------------------------------------------|
B---------------------------------------------------------------------------|
G---------------------------------------------------------------------------|
D--------5---7--------7--7-------------5---7--------7--7--------------------|
A--------5---7--------7--7-------------5---7--------7--7--------------------|
D--------5---7--------7--7-------------5---7--------7--7--------------------|

E---------------------------------------------------------------------------|
B---------------------------------------------------------------------------|
G---------------------------------------------------------------------------|
D--------5---7--------7--7-------------5---7--------7--7--------------------|
A--------5---7--------7--7-------------5---7--------7--7--------------------|
D--------5---7--------7--7-------------5---7--------7--7--------------------|
             Finally get you alone,        Disconnect the phone.

E---------------------------------------------------------------------------|
B---------------------------------------------------------------------------|
G---------------------------------------------------------------------------|
D--------5---7--------7--7-------------5---7--------7--7--------------------|
A--------5---7--------7--7-------------5---7--------7--7--------------------|
D--------5---7--------7--7-------------5---7--------7--7--------------------|
      It's a part of you, you know it's true. I know you wanna bon...

E---------------------------------------------------------------------------|
B---------------------------------------------------------------------------|
G---------------------------------------------------------------------------|
D--------5---7--------7--7-------------5---7--------7--7--------------------|
A--------5---7--------7--7-------------5---7--------7--7--------------------|
D--------5---7--------7--7-------------5---7--------7--7--------------------|
             Appetit! Something to eat?    How silly of me..

E---------------------------------------------------------------------------|
B---------------------------------------------------------------------------|
G---------------------------------------------------------------------------|
D--------5---7--------7--7-------------5---7--------7--7--------------------|
A--------5---7--------7--7-------------5---7--------7--7--------------------|
D--------5---7--------7--7-------------5---7--------7--7--------------------|
   What do I have to do to get with you? Play the Your First Time CD!

E---------------------------------------------------------------------------|
B---------------------------------------------------------------------------|
G--------5--------------4---------------------------------------------------|
D--------5--------------4-----------5---7--------7--7----5---7--------7--7--|
A--------3--------------2-----------5---7--------7--7----5---7--------7--7--|
D-----------------------------------5---7--------7--7----5---7--------7--7--|
         Ohhhhhhhhhhhhhh Let's get Barry White tonight!

E---------------------------------------------------------------------------|
B---------------------------------------------------------------------------|
G--------5--------------4---------------------------------------------------|
D--------5--------------4-----------5---7--------7--7----5---7--------7--7--|
A--------3--------------2-----------5---7--------7--7----5---7--------7--7--|
D-----------------------------------5---7--------7--7----5---7--------7--7--|
         Ohhhhhhhh, Let's get Barry White tonight!

E---------------------------------------------------------------------------|
B---------------------------------------------------------------------------|
G--------5--------------4---------------------------------------------------|
D--------5--------------4-----------5---7--------7--7----5---7--------7--7--|
A--------3--------------2-----------5---7--------7--7----5---7--------7--7--|
D-----------------------------------5---7--------7--7----5---7--------7--7--|
        Ohhhhh, Let's get Barry White tonight!

E---------------------------------------------------------------------------|
B---------------------------------------------------------------------------|
G--------5--------------4---------------------------------------------------|
D--------5--------------4-----------5---7--------7--7----5---7--------7--7--|
A--------3--------------2-----------5---7--------7--7----5---7--------7--7--|
D-----------------------------------5---7--------7--7----5---7--------7--7--|
        Ohhhhh, Momma Love Tigress! Let's get Barry White tonight!

E---------------------------------------------------------------------------|
B---------------------------------------------------------------------------|
G---------------------------------------------------------------------------|
D--------5---7--------7--7-------------5---7--------7--7--------------------|
A--------5---7--------7--7-------------5---7--------7--7--------------------|
D--------5---7--------7--7-------------5---7--------7--7--------------------|
             Girl this feels just right,   tryin to stay polite.

E---------------------------------------------------------------------------|
B---------------------------------------------------------------------------|
G---------------------------------------------------------------------------|
D--------5---7--------7--7-------------5---7--------7--7--------------------|
A--------5---7--------7--7-------------5---7--------7--7--------------------|
D--------5---7--------7--7-------------5---7--------7--7--------------------|
  Which is hard to do when I'm layin' with you, and my pants start to ignite
[ Tab from: http://www.guitaretab.com/m/misc-unsigned-bands/100320.html ]
E---------------------------------------------------------------------------|
B---------------------------------------------------------------------------|
G---------------------------------------------------------------------------|
D--------5---7--------7--7-------------5---7--------7--7--------------------|
A--------5---7--------7--7-------------5---7--------7--7--------------------|
D--------5---7--------7--7-------------5---7--------7--7--------------------|
         So what have we got so far?      I met you in the bar,

E---------------------------------------------------------------------------|
B---------------------------------------------------------------------------|
G---------------------------------------------------------------------------|
D--------5---7--------7--7-------------5---7--------7--7--------------------|
A--------5---7--------7--7-------------5---7--------7--7--------------------|
D--------5---7--------7--7-------------5---7--------7--7--------------------|
         Got home at one, we had some fun. Now I feel like a pornstar.

E---------------------------------------------------------------------------|
B---------------------------------------------------------------------------|
G--------5--------------4---------------------------------------------------|
D--------5--------------4-----------5---7--------7--7----5---7--------7--7--|
A--------3--------------2-----------5---7--------7--7----5---7--------7--7--|
D-----------------------------------5---7--------7--7----5---7--------7--7--|
        Ohhhhh, Let's get Barry White tonight!

E---------------------------------------------------------------------------|
B---------------------------------------------------------------------------|
G--------5--------------4---------------------------------------------------|
D--------5--------------4-----------5---7--------7--7----5---7--------7--7--|
A--------3--------------2-----------5---7--------7--7----5---7--------7--7--|
D-----------------------------------5---7--------7--7----5---7--------7--7--|
       Ohhh, come on baby! Let's get Barry White tonight!

E---------------------------------------------------------------------------|
B---------------------------------------------------------------------------|
G--------5--------------4---------------------------------------------------|
D--------5--------------4-----------5---7--------7--7----5---7--------7--7--|
A--------3--------------2-----------5---7--------7--7----5---7--------7--7--|
D-----------------------------------5---7--------7--7----5---7--------7--7--|
     James Brown! Let's get Barry White tonight!... That's baby-makin' music

E---------------------------------------------------------------------------|
B---------------------------------------------------------------------------|
G--------5--------------4---------------------------------------------------|
D--------5--------------4-----------5---7--------7--7----5---7--------7--7--|
A--------3--------------2-----------5---7--------7--7----5---7--------7--7--|
D-----------------------------------5---7--------7--7----5---7--------7--7--|
     Ohhhhh, Barry White TONIGHT!

E---------------------------------------------------------------------------|
B---------------------------------------------------------------------------|
G---------------------------------------------------------------------------|
D--------5---7--------7--7-------------5---7--------7--7--------------------|
A--------5---7--------7--7-------------5---7--------7--7--------------------|
D--------5---7--------7--7-------------5---7--------7--7--------------------|

E---------------------------------------------------------------------------|
B---------------------------------------------------------------------------|
G---------------------------------------------------------------------------|
D--------5---7--------7--7-------------5---7--------7--7--------------------|
A--------5---7--------7--7-------------5---7--------7--7--------------------|
D--------5---7--------7--7-------------5---7--------7--7--------------------|

E---------------------------------------------------------------------------|
B---------------------------------------------------------------------------|
G---------------------------------------------------------------------------|
D--------5---7--------7--7-------------5---7--------7--7--------------------|
A--------5---7--------7--7-------------5---7--------7--7--------------------|
D--------5---7--------7--7-------------5---7--------7--7--------------------|

E---------------------------------------------------------------------------|
B---------------------------------------------------------------------------|
G---------------------------------------------------------------------------|
D--------5---7--------7--7-------------5---7--------7--7--------------------|
A--------5---7--------7--7-------------5---7--------7--7--------------------|
D--------5---7--------7--7-------------5---7--------7--7--------------------|

E---------------------------------------------------------------------------|
B---------------------------------------------------------------------------|
G--------5--------------4---------------------------------------------------|
D--------5--------------4-----------5---7--------7--7----5---7--------7--7--|
A--------3--------------2-----------5---7--------7--7----5---7--------7--7--|
D-----------------------------------5---7--------7--7----5---7--------7--7--|
        Ohhhh, OH BABY! Let's get Barry White tonight!

E---------------------------------------------------------------------------|
B---------------------------------------------------------------------------|
G--------5--------------4---------------------------------------------------|
D--------5--------------4-----------5---7--------7--7----5---7--------7--7--|
A--------3--------------2-----------5---7--------7--7----5---7--------7--7--|
D-----------------------------------5---7--------7--7----5---7--------7--7--|
       Ohhh, come on baby! Let's get Barry White tonight!

E---------------------------------------------------------------------------|
B---------------------------------------------------------------------------|
G--------5--------------4---------------------------------------------------|
D--------5--------------4-----------5---7--------7--7----5---7--------7--7--|
A--------3--------------2-----------5---7--------7--7----5---7--------7--7--|
D-----------------------------------5---7--------7--7----5---7--------7--7--|
       Ohhhhh, ONE MORE TIME! BARRY WHITE TONIGHT!

E---------------------------------------------------------------------------|
B---------------------------------------------------------------------------|
G--------5--------------4---------------------------------------------------|
D--------5--------------4-----------5---7--------7--7----5---7--------7--7--|
A--------3--------------2-----------5---7--------7--7----5---7--------7--7--|
D-----------------------------------5---7--------7--7----5---7--------7--7--|
      BOB SAGET!!!!! LETS GET BARRY WHITE TONIGHT.

E--------------------------------------5------------------------------------|
B--------------------------------------5------------------------------------|
G-----------5---5----------4---4-------6------------------------------------|
D---------5---5---5------4---4---4-----7------------------------------------|
A-------3--------------2---------------7------------------------------------|
D--------------------------------------x------------------------------------|

****************************************************************************
                      Copyright Your First Time 2007
****************************************************************************

Your First Time is:

Andrew Dodd- Vocals
Nik Pankow- Guitar
Andy Mac- Bass
Taylor Leeder- Keys
Mat McAllister- Drums

www.myspace.com/yourfirsttimeband
Related for Your First Time - Lets Get Barry White Tonight tab
Advertisement will be closed in 10 seconds