Guitaretab - guitar tabs
Song name
# A B C D E F G H I J K L M N O P Q R S T U V W X Y Z

Misc Unsigned Bands - Amends To The Dead - Betrayal Makes Me Stronger tab

Betrayal Outro Riff
Standard Tuning

. Palm Mute
~ Let Ring

This isn't a solo it's the OUTRO RIFF!


The 3h5-3ís are easier if you slide it all, youíll still get the same result.
And you can palm mute 1ís on the D string instead of 5ís but it doesnít sound as good 
you donít get that meaty mute as you do on the A string, but thatís just my opinion. Enjoy (:


E|------------------------------------------------|
B|------------------------------------------------|
G|--3h5-3--3h5-3-1-1h3-5---3h5-3--------3---------|
D|1-------1-------------------------3-5--5-3-0-1--|
A|-----------------------5--------3---------------|
E|------------------------------------------------|
[ Tab from: http://www.guitaretab.com/m/misc-unsigned-bands/100330.html ]
E|------------------------------------------------|
B|------------------------------------------------|
G|--3h5-3--3h5-3-1-1h3-5---3h5-3--------3---------|
D|1-------1-------------------------3-5--5-3-0-1--|
A|-----------------------5--------3---------------|
E|------------------------------------------------|

E|------------------------------------------------------|
B|------------------------------------------------------|
G|-----3h5-3----3h5-3-1-1h3-5----3h5-3--------3---------|
D|1---------1-----------------------------3-5--5-3-0-1--|
A|--55--------55-------------5-55-------3---------------|
E|------------------------------------------------------|
    ..        ..               ..

E|------------------------------------------------------|
B|------------------------------------------------------|
G|-----3h5-3----3h5-3-1-1h3-5----3h5-3--------3---------|
D|1---------1-----------------------------3-5--5-3-0-1~-|
A|--55--------55-------------5-55-------3---------------|
E|------------------------------------------------------|
    ..        ..               ..
Related for Amends To The Dead - Betrayal Makes Me Stronger tab