Song name
# A B C D E F G H I J K L M N O P Q R S T U V W X Y Z

Misc Unsigned Bands - Circus - Theme Song tab

OK so i don't know the true name of this song, but it appears in a iron maiden video  
and i thought it would be cool to tab it. I play it in C# standard but you can play it 
whatever tuning and it still sounds cool.

e|12-11-10h11p10-9-------------11-10-9h10p9-8----------------9-----------9------------|
B|------------------13-12-11-12---------------12-11-10-11-11--11-11-10-11--11-11-10-11|
G|------------------------------------------------------------------------------------|
D|------------------------------------------------------------------------------------|
A|------------------------------------------------------------------------------------|
E|------------------------------------------------------------------------------------|
                                                          

e|-----------------------------------12-|
B|-------------------------------9h10---|
G|------------------------9h10h12-------|
D|-----------------9h10h12--------------|
A|----------9h10h12---------------------|
E|--9h10h12-----------------------------|
Tap to rate this tab
 
# A B C D E F G H I J K L M N O P Q R S T U V W X Y Z