Song name
# A B C D E F G H I J K L M N O P Q R S T U V W X Y Z

Misc Unsigned Bands - Mmb - Untitled tab

-------------------------------------------------------------------------------
			     Untitled - MMB
-------------------------------------------------------------------------------
Tabbed by:1sok

Tuning: Standard

                                     Intro

e|-----------------------------------[
B|-----------------------------------[
G|-----------------------------------[
D|-----------------------------------[
A|-7-7-8-7-7--7-7-8-7-5-3-1-1-3-0----[
E|5----------5-----------------------[



                              Verse (type1)
e|------------------------------[
B|------------------------------[
G|-----7-7--5-5-3-3-5-5---------[
D|7-7--7-7--5-5-3-3-5-5---------[
A|7-7--5-5--3-3-1-1-3-3---------[
E|5-5---------------------------[

                         Verse (type 2)       
e|------------------------------[
B|------------------------------[
G|------7-7---5-5---------------[
D|7-7---7-7---5-5--3-3-5-5------[
A|7-7---5-5---3-3--3-3-5-5------[
E|5-5--------------1-1-3-3------[


        
    Extra thing before solo             
e|---------------------[
B|---------------------[
G|---------------------[
D|7-7--7-7--7-7--7-7---[
A|7-7--7-7--7-7--7-7---[
E|5-5--5-5--5-5--5-5---[
 
                                                   Solo
e|17/18-15-17-12-13-13-15-15-17-12-13-13-15-15-17---[
B|--------------------------------------------------[
G|--------------------------------------------------[
D|--------------------------------------------------[
A|--------------------------------------------------[
E|--------------------------------------------------[


Last Thing/ note/chord after solo thingy
e|5----[
B|6----[
G|7----[
D|-----[
A|-----[
E|-----[


Intro X2
Verse (type 1) X2
Intro X2
Verse (type 2) X2
Intro X2
Verse (type 1) X2
Intro X2
Verse (type 2) X2
Extra thing before solo X1   
Solo X2
Last Thing/ note/chord after solo thingy X1

Tap to rate this tab
 
# A B C D E F G H I J K L M N O P Q R S T U V W X Y Z