Song name
# A B C D E F G H I J K L M N O P Q R S T U V W X Y Z

Misc Unsigned Bands - Sins Like Scarlet - Were Only Illiterate In The Dark tab

This is We're Only Illterate in the Dark by Sins Like Scarlet

tuning is drop D


play quietly (with overdrive if possible)

Intro, A:
E|--------------------------------------------------------------------------|
B|--------------------------------------------------------------------------|
G|--------------------------------------------------------------------------|
D|--------------------------------------------------------------------------|
A|------------13-13-13-12-12-12-12-12-12-12-12-------12-12---------10-10-10-|
D|12-12-12-12----------------------------------10-10-------8-8-8-8----------|

E|--------------------------------------------------------------------------|
B|--------------------------------------------------------------------------|
G|--------------------------------------------------------------------------|
D|---------------------------------------------------------------------x2---|
A|8-8-8-7-7-8-8-9-9---------------------------------------------------------|
D|--------------------------------------------------------------------------|

With Mega-distortion and overdrive (or no overdrive)(if no mega distortion use metal 
or regular distortion)

Intro, B:
E|--------------------------------------------------------------------------|
B|--------------------------------------------------------------------------|
G|--------------------------------------------------------------------------|
D|---------------------------------------------------------------------x3---|
A|12--12-13-13--12--12-12--10-10-12-12-8--8--10-10--8--8-8-7h8-8h10---------|
D|12--12-------------------10-10-------8--8---------------------------------|

E|---------------------------------------------------------------------------|
B|---------------------------------------------------------------------------|
G|---------------------------------------------------------------------------|
D|---------------------------------------------------------------------------|
A12--12-13-13--12--12-12--10-10-12-12-8--8--10-10-10-8-8-8-10-10-12-12-13-13-|
D12--12-------------------10-10-------8--8-----------------------------------|
 Let last note ring.. for about 2-5 seconds. Eric screams when the note is ringing.

Verse
E|--------------------------------------------------------------------------|
B|--------------------------------------------------------------------------|
G|--------------------------------------------------------------------------|
D|-----------------------x2--------------------------------8----------------|
A|-7--8--7--8--8h10-8h10----8--10--12--10--8----10--8--12-------------------|
D|0--0--0--0--0------------8--8--8--8--8--8----8--8--8--8-------------------|

E|--------------------------------------------------------------------------|
B|--------------------------------------------------------------------------|
G|--------------------------------------------------------------------------|
D|--------------------------------------------------------------------------|
A|-7--8--7--8--8-10---8-10-12-----------------------------------------------|
D|7--7--7--7--7------8-8-8--------------------------------------------------|


Chorus
E|--------------------------------------------------------------------------|
B|--------------------------------------------------------------------------|
G|--------------------------------------------------------------------------|
D|---------------------------------------------------------------------x4---|
A|0--0--12-12--10-10-10--7--8---3--3--8h7--3--3-3--8h7-5h7------------------|
D|0--0--12-12--10-10-10--7--8---3--3--8h7--3--3-3--8h7-5h7------------------|


Play Verse

Play Chorus


Bridge
E|--------------------------------------------------------------------------|
B|--------------------------------------------------------------------------|
G|--------------------------------------------------------------------------|
D|--------------------------------------------------------------------------|
A|-7--8--7--5--3-5---7--8--10--8--10-8-7h8h7----5--7--5--7-7-7---3--5--7----|
D|0--0--0--0--0-----0--0--0--0--0-------------8--8--8--8--------5--5--5-----|


let last note ring again


Play Chorus


Outro
look at intro B.

Let last note ring. then play bottom string and the string b4 it open.
Tap to rate this tab
 
# A B C D E F G H I J K L M N O P Q R S T U V W X Y Z