Song name
# A B C D E F G H I J K L M N O P Q R S T U V W X Y Z

Misc Unsigned Bands - The Headliners - Rich Boy tab

intro / verse

e:---------------:
b:--7--10--7-----:
g:--7--7---7--9--: (x4)
D:--7--7---7--7--:
A:---------------:
E:---------------:

Verse:

e:----------------------------------------------:
b:----7---7---7---7---10---10---10---10---------: 
g:--7---7---7---7---7----7----7----7------------: 
D:----------------------------------------------: 
A:----------------------------------------------:     
E:----------------------------------------------: 
                                            
                                             End on 
e:----------------------------------------:------------: 
b:----7---7---7---7-----------------------:----7-------: 
g:--7---7---7---7------9---9---9---9--(X2):----7-------: 
D:-------------------7---7---7---7--------:----7-------: 
A:----------------------------------------:------------: 
E:----------------------------------------:------------: 

e:----------------------------------------------:
b:--5/7-----------3-3-3-3-3-3-3/5---------------:
g:-------4-(x4)---4-4-4-4-4-4-4/6---------------:
D:----------------5-5-5-5-5-5-5/7---------------:
A:----------------5-5-5-5-5-5-5/7---------------:
E:----------------------------------------------:

              fast strum 
e:-----------------5-------------------------------:
b:--5/7------------5-------------------------------:
g:-------4-(X4)----6--------9----------------------:
D:-----------------7--------7----------------------:
A:-----------------7--------7----------------------:
E:-----------------5--------5----------------------:

e:------------------------------:
b:--7-7h10-10-------------------:
g:--7-7----7--7-7----7-7-7------:
D:--7-7----7--7-7h9--7-7-7-(x5)-:
A:-------------------9-9-9------:
E:------------------------------:

e:----------------------------------------------:
b:--7~-10~--7-7-x-x-7-7-x-x-7-7-x-x-7-7-x-x-----:
g:--7~--7~--7-7-x-x-7-7-x-x-7-7-x-x-7-7-x-x-----:
D:--7~--7~--7-7-x-x-7-7-x-x-7-7-x-x-7-7-x-x-----:
A:----------------------------------------------:
E:----------------------------------------------:

e:-------------------------------:
b:--7~--10~--7-7-x-x-7-7-x-x-7---:
g:--7~--7~---7-7-x-x-7-7-x-x-7---:
D:--7~--7~---7-7-x-x-7-7-x-x-7---:
A:-------------------------------:
E:-------------------------------:


e:----------------------------------------------:
b:----7---7---7---7---10---10---10---10---------: 
g:--7---7---7---7---7----7----7----7------------: 
D:----------------------------------------------: 
A:----------------------------------------------:     
E:----------------------------------------------: 
                                            
                                             
e:----------------------------------------:
b:----7---7---7---7-----------------------:
g:--7---7---7---7------9---9---9---9--(X2):
D:-------------------7---7---7---7--------:
A:----------------------------------------:
E:----------------------------------------:


e:---------------------------------------:
b:---7-7-x-x-7-7-x-x-10-10-x-x-10-10-x-x-:
g:---7-7-x-x-7-7-x-x-7--7--x-x-7--7--x-x-:
D:---7-7-x-x-7-7-x-x-7--7--x-x-7--7--x-x-:
A:---------------------------------------:
E:---------------------------------------:

                                                End On
e:-------------------------------------------:------------:
b:---7-7-x-x-7-7-x-x-------------------------:------7-----:
g:---7-7-x-x-7-7-x-x-9--9--x-x-9--9-x-x--(x2):------7-----:
D:---7-7-x-x-7-7-x-x-7--7--x-x-7--7-x-x------:------7-----:
A:-------------------------------------------:------------:
E:-------------------------------------------:------------:


e:----------------------------------------------:
b:--5/7-----------3-3-3-3-3-3-3/5---------------:
g:-------4-(x4)---4-4-4-4-4-4-4/6---------------:
D:----------------5-5-5-5-5-5-5/7---------------:
A:----------------5-5-5-5-5-5-5/7---------------:
E:----------------------------------------------:

              fast strum 
e:-----------------5--------7--:
b:--5/7------------5--------7--:
g:-------4-(X4)----6--------8--:
D:-----------------7--------9--:
A:-----------------7--------9--:
E:-----------------5--------7--:

             
e:----------------------------------:
b:--9-9h12-12-----------------------:
g:--9-9----9--9-9-------------------:
D:--9-9----9--9-9h11-9--9--9---(x5)-:
A:-------------------11-11-11-------:
E:----------------------------------:


e:----------------------------------------------:
b:--9~--12~-9-9-x-x-9-9-x-x-9-9-x-x-9-9-x-x-----:
g:--9~--9~--9-9-x-x-9-9-x-x-9-9-x-x-9-9-x-x-----:
D:--9~--9~--9-9-x-x-9-9-x-x-9-9-x-x-9-9-x-x-----:
A:----------------------------------------------:
E:----------------------------------------------:

e:------------------------------:
b:--9~--12~-9-9-x-x-9-9-x-x-9---:
g:--9~--9~--9-9-x-x-9-9-x-x-9---:
D:--9~--9~--9-9-x-x-9-9-x-x-9---:
A:------------------------------:
E:------------------------------:

e:-------------------------------------------------------:
b:---9---9----12-12p9------------------------------------:
g:-9---9----9-------------9----9----9--------------------:
D:---------------------11---11---11----11-----9-----(x8)-:
A:-----------------------------------------11---11-------:
E:-------------------------------------------------------:

e:-------------------------12-12-12-11-11-11---------:
b:-------------------------------------------12-12---:
g:---------------------------------------------------:
D:-11-11-11-11-11-11-11-11---------------------------:
A:---------------------------------------------------:
E:---------------------------------------------------:

                                                   End On
e:--------------------------12-12-12-11-11-------:----------:
b:-9-9-9-9-9-9-9-9-10-10-10----------------------:----8b----: (gradual bend)
g:------------------------------------------(x5)-:----------:
D:-----------------------------------------------:----------:
A:-----------------------------------------------:----------:
E:-----------------------------------------------:----------:

e:----------------------------------:
b:--9-9h12-12-----------------------:
g:--9-9----9--9-9-------------------:
D:--9-9----9--9-9h11-9--9--9---(x5)-:
A:-------------------11-11-11-------:
E:----------------------------------:

Tap to rate this tab
# A B C D E F G H I J K L M N O P Q R S T U V W X Y Z