Song name
# A B C D E F G H I J K L M N O P Q R S T U V W X Y Z

Misc Unsigned Bands - Revolation - Convicted tab

tbbed by justin macintyre
this is only the rythm part of the song .. lead and solos + complete  song coming soon!

Band: RevolatioN
Song: Convicte

|----------------------------------------------------------|
|----------------------------------------------------------|
|--555-55-555-55-55-777-77---------------------------------|
|--555-55-555-55-55-555-55--777-7777-----------------------|(X4)
|--333-33-333-33-33-555-55--555-5555-----------------------|
|---------------------------555-5555-----------------------|

Verse
|-----------------------------------------------------------|
|-----------------------------------------------------------|
|-----------------------------------------------------------|
|-----------------------------------------------------------|(3x)
|--9------9------9----7------7------7----5------5------5----|
|--7-0000-7-0000-7-00-5-0000-5-0000-5-00-3-0000-3-0000-3-00-|

Pre-chorus
|----------------------------------------------------------|
|----------------------------------------------------------|
|----------------------------------------------------------|
|----------------------------------------------------------|
|-7-7-7b--5-5-5b--7-7-7b--5-5-0-5-5-0----------------------|
|-5-5-5b--3-3-3b--5-5-5b--3-3-0-3-3-0----------------------|

chorus
|----------------------------------------------------------|
|----------------------------------------------------------|
|----------------------------------------------------------|
|----------------------------------------------------------|(2x)
|-5-777-10-777-5-777-10b-12b-------------------------------|
|-3-555-8--555-3-555-8b--10b-------------------------------|

Riff 2 (after chorus)
|----------------------------------------------------------|
|----------------------------------------------------------|
|----------------------------------------------------------|
|----------------------------------------------------------|
|-7-7-7b--5-5-5b--7-7-7b--5-5-0-5-5-0----------------------|
|-5-5-5b--3-3-3b--5-5-5b--3-3-0-3-3-0----------------------|



Verse
|-----------------------------------------------------------|
|-----------------------------------------------------------|
|-----------------------------------------------------------|
|-----------------------------------------------------------|(3x)
|--9------9------9----7------7------7----5------5------5----|
|--7-0000-7-0000-7-00-5-0000-5-0000-5-00-3-0000-3-0000-3-00-|


Pre-chorus
|----------------------------------------------------------|
|----------------------------------------------------------|
|----------------------------------------------------------|
|----------------------------------------------------------|
|-7-7-7b--5-5-5b--7-7-7b--5-5-0-5-5-0----------------------|
|-5-5-5b--3-3-3b--5-5-5b--3-3-0-3-3-0----------------------|

chorus
|----------------------------------------------------------|
|----------------------------------------------------------|
|----------------------------------------------------------|
|----------------------------------------------------------|(2x)
|-5-777-10-777-5-777-10b-12b-------------------------------|
|-3-555-8--555-3-555-8b--10b-------------------------------|

Riff 2 (after chorus)
|----------------------------------------------------------|
|----------------------------------------------------------|
|----------------------------------------------------------|
|----------------------------------------------------------|
|-7-7-7b--5-5-5b--7-7-7b--5-5-0-5-5-0----------------------|
|-5-5-5b--3-3-3b--5-5-5b--3-3-0-3-3-0----------------------|


chorus
|----------------------------------------------------------|
|----------------------------------------------------------|
|----------------------------------------------------------|
|----------------------------------------------------------|
|-5-777-10-777-5-777-10b-12b-------------------------------|
|-3-555-8--555-3-555-8b--10b-------------------------------|
(repeat numerous times and fade)
Tap to rate this tab
# A B C D E F G H I J K L M N O P Q R S T U V W X Y Z