Guitaretab - guitar tabs
Song name
# A B C D E F G H I J K L M N O P Q R S T U V W X Y Z

Misc Unsigned Bands - Gods Shadow - Dead Serenade tab

this section is clean
pm(------------------------------------------------------)

d--------------------------------------------------------|
a--------------------------------------------------------|
f--------------------------------------------------------| x2 pm
c--------------------------------------------------------| x2 no pm
g--------------------------------------------------------| x2 distotion
c----12-00-12-10-13-00-13-12-10-00-10-12-13-00-15-13-12--|

---------------------------cut-off------------------------------------------
ditortion
     pm--       --       --       -------------------------|
d----------------------------------------------------------|
a----------------------------------------------------------|
f----------------------------------------------------------|
c----------------------------------------------------------| x2
g----5----5-3-6----6-5-3----3-5-6----8-6-5~~~~~~~~~~~~~~~--|
c----5-00-5-3-6-00-6-5-3-00-3-5-6-00-8-6-5~~~~~~~~~~~~~~~--|
                                             (ring out)

d--------------------------------------------------------|
a--------------------------------------------------------|
f--------------------------------------------------------|
c--------------------------------------------------------|
g~~~~0~2~~~~~~~~~~~~~~-----------------------------------|
c~~~~0~2~~~~~~~~~~~~~~-----------------------------------|
[ Tab from: http://www.guitaretab.com/m/misc-unsigned-bands/100449.html ]
         (fade out)

clean w\chorus

(whispers of the dead...)
d--------------------------------------------------------|
a--------------------------------------------------------|
f--------------------------------------------------------|
c------4-----4-----4---4-----4-----4---------------------| x4
g--------2-----2---------2-----2-------------------------|
c----2-----2-----2---3-----0-----0-----------------------|
   pm --     - ---   --  --   -  ---   --
d--------------------------------------------------------|
a--------------------------------------------------------|
f--------------------------------------------------------|
c--------------------------------------------------------|
g----2-22-2-23-333-0-002-22-2-23-333-0-00----------------|
c----2-22-2-23-333-0-002-22-2-23-333-0-00----------------|


  pm  - -   -   - - - --- - -  - -  -    - - - --- - -
d--------------------------------------------------------|
a--------------------------------------------------------|
f--------------------------------------------------------|
c----7----8---7--------------7-----8---------------------| x2
g----5----6---5--------------5-----6---6-----------------|
c-----0-0---0---0-0-0-000-0-0--0-0---0-6-6-6-6-666-6-6---|

----------------------------cut-off-----------------------------------------
reapeatcut off section

this is the first half of the song but i dont feel like finishing so ill put the rest later
Related for Gods Shadow - Dead Serenade tab
Advertisement will be closed in 10 seconds