Song name
# A B C D E F G H I J K L M N O P Q R S T U V W X Y Z

Misc Unsigned Bands - Conspiracy Of The Weak Minded - Pumpkin Pie And Whip Cream tab

H- hammeron
P- pulloff
~- hold out
.- palm mute
^- bend 
   

blast beat
D[-------------------------------------------]
A[-------------------------------------------]
F[-------------------------------------------]
C[-------------------------------------------] x2
G[-------------------------------------------]
C[-5566776655(x4)-3344554433(x2)-2233443322--]

circle pit
D[----------------------------------------------------]
A[----------------------------------------------------]
F[----------------------------------------------------]
C[----------------------------------------------------] x2
G[-7h10(x8)6h9(x8)5h8(x8)4h7(x4)5h8-6h9-7h10-8h11-----]
C[----------------------------------------------------]

breakdown 
D[-----------------------]
A[-----------------------]
F[-----------------------]
C[-----------------------] x5
G[-00-5h8-00-7h10-8h11---]
C[-00-----00-------------]
   ..     ..

speedup breakdown
D[------------------------------------]
A[------------------------------------]
F[---------------------7h10-----------]
C[----------------7h10----------------] x4
G[-00-5h8-00-7h10---------------------]
C[-00-----00--------------------------]
   ..     ..

2step
D[------------------------------------------]
A[------------------------------------------]
F[------------------------------------------]
C[-88888888-10101010-0000-5555-3333-5555----] x3 last time hold out
G[-88888888-10101010-0000-5555-3333-5555----]
C[-88888888-10101010-0000-5555-3333-5555----]
                           
pause for 1 sec.

breakdown
D[-------------------]
A[-------------------]
F[-------------------]
C[---------5~--------]x8 
G[-------005~--------]
C[-0h7h9-005~--------]
         ..

the chant

END OF SONG!!
Tap to rate this tab
# A B C D E F G H I J K L M N O P Q R S T U V W X Y Z