Guitaretab - guitar tabs
Song name
# A B C D E F G H I J K L M N O P Q R S T U V W X Y Z

Misc Unsigned Bands - Breathe The Plague - Intro Song tab

-------------------------------------------------------------------------------
			     Intro - Breathe The Plague
-------------------------------------------------------------------------------
Tabbed by:Joe K	
Email:

Tuning:Dropped B

This song hasnt been recorded yet, but it is the intro song to our set at shows.


C#|---------------------------------------------------------------------------|
G#|---------------------------------------------------------------------------|
E |---------------------------------------------------------------------------|
B |--0------------------------------------------------------------------------|
F#|--0------------------------------------------------------------------------|
B |--0------------------------------------------------------------------------|

C#|---------------------------------------------------------------------------|
G#|---------------------------------------------------------------------------|
E |----------------------------------------------------(STRUM)----------------|
B |---------------------------------------------------------------------------|
F#|---------------1-4-3-1-----3*-----------------------1-1-1-1----------------|
B |-00000---0--0--1-4-3-1-0-0----------00000---0--0----1-1-1-1----------------|
    -----   -  -  - - - - - -          -----   -  -    
[ Tab from: http://www.guitaretab.com/m/misc-unsigned-bands/100481.html ]
C#|---------------------------------------------------------------------------|
G#|---------------------------------------------------------------------------|
E |----------------------------------------------------(STRUM)----------------|
B |---------------------------------------------------------------------------|
F#|---------------1-4-3-1-----3*-----------------------1-1-1-1----------------|
B |-00000---0--0--1-4-3-1-0-0----------00000---0--0----1-1-1-1----------------|
    -----   -  -  - - - - - -          -----   -  -  

C#|---------------------------------------------------------------------------|
G#|---------------------------------------------------------------------------|
E |----------------------------------------------------(STRUM)----------------|
B |---------------------------------------------------------------------------|
F#|---------------1-4-3-1-----3*-----------------------1-1-1-1----------------|
B |-00000---0--0--1-4-3-1-0-0----------00000---0--0----1-1-1-1----------------|
    .....   .  .  . . . . . .          .....   .  .  

C#|---------------------------------------------------------------------------|
G#|---------------------------------------------------------------------------|
E |----------------------------------------------------(STRUM)----------------|
B |------------------------------------------------------------------0--------|
F#|---------------1-4-3-1-----3*-----------------------1-1-1-1-------0--------|
B |-00000---0--0--1-4-3-1-0-0----------00000---0--0----1-1-1-1-------0--------|
    .....   .  .  . . . . . .          .....   .  . 



| *  harmonic
| .  Mute note
| -  Half mute note
===============================================================================
Related for Breathe The Plague - Intro Song tab
Advertisement will be closed in 10 seconds