Song name
# A B C D E F G H I J K L M N O P Q R S T U V W X Y Z

Misc Unsigned Bands - Funtwo - Carol Rock tab

Help us improve GuitareTab! Take a short survey!
Funtwo - Carol Rock Tab @ Ultimate-Guitar.com
Artist      :_____________ Funtwo
Song        :_____________ Carol Rock
Transcriber :_____________ Chris Fauskanger (Im Norwegian)
Contact     :_____________ fauskanger_42@hotmail.com

Watch/listen to the song here http://www.youtube.com/watch?v=86LQCv3X_vo
So I've finaly tabbed the rest of it. I dont think I'll be tabbing the rest any time 
but this is pretty much the main thing of the song.
Since it's christmas I figured I'd share the song with you guys:)
Please rate it and comment on it.
www.youtube.com/chris93rock <- Thats my profile. Sooner or later,
me playing this song will be there =D

e|-----------------------------------------------------------------------|
B|---2h-3h-5-5~---5-7h-8h-10~------2h-3h-5-5~--0-7*-0h-5*--3*~-----------|
G|-----------------------------------------------------------------------|
D|-----------------------------------------------------------------------|
A|-----------------------------------------------------------------------|
E|-----------------------------------------------------------------------|
                       T
e|-----------------------------------------------------------------------|
B|--2h-5-------2*--------------------------------------------------------|
G|-------2-5-4-----------------------------------------------------------|
D|----------------0-2-(14)~----------------------------------------------|
A|-----------------------------------------------------------------------|
E|-----------------------------------------------------------------------|

e|---------------------------14-14h-15h-17-17b(18)= 17-------------------|
B|---14h-15h-17-17--15h-17-----------------------------------------------|
G|-----------------------------------------------------------------------|
D|-----------------------------------------------------------------------|
A|-----------------------------------------------------------------------|
E|-----------------------------------------------------------------------|

e|-----------------------------------------------------------------------|
B|-14h-15h-17-17~--15h-17--18b(19)= 18--15h-17-16------------------------|
G|-----------------------------------------------------------------------|
D|-----------------------------------------------------------------------|
A|-----------------------------------------------------------------------|
E|-----------------------------------------------------------------------|
e|-----------------------------------------------------------------------|

e|-----------------------------------------------------------------------|
B|--14-17------------15-(15)---------------------------------------------|
G|---------14-18-16------------------------------------------------------|
D|---------------------------18-20~--------------------------------------|
A|-----------------------------------------------------------------------|
E|-----------------------------------------------------------------------|

e|-----------------------------------------------------------------------|
B|-----------------------------------------------------------------------|
G|---------------------------------11-12-14--14b(15)14-12-14-12*b--------|
D|------------------------11-12-14---------------------------------------|
A|---------------11-14-15------------------------------------------------|
E|-----10h-12-13---------------------------------------------------------|

e|-------------------16-14-13--------------------------------------------|
B|----------------------------16-14-12-----------------------------------|
G|----15b(16)13-15---------------------16-15-13--------------------------|
D|---------------------------~------------------16-15-13-----------------|
A|-----------------------------------------------------------------------|
E|-----------------------------------------------------------------------|

    I know that he plays chords here but I couldnt figure them out so I
                    just play them as single notes.
e|-----------------------------------------------------------------------|
B|-----------------------------------------------------------------------|
G|--16-18-15-17-13-13-13(13)--13-14-16-16-14-13-11-9*b-------------------|
D|-----------------------------------------------------------------------|
A|-----------------------------------------------------------------------|
E|-----------------------------------------------------------------------|

e|-----------------------------------------------------------------------|
B|---2h-3h-5-5~---5-7h-8h-10~----14h-15h-17-17--15h-19p-14h-17p-14h-15---|
G|-----------------------------------------------------------------------|
D|-----------------------------------------------------------------------|
A|-----------------------------------------------------------------------|
E|-----------------------------------------------------------------------|

e|--------------------------16-17----------------------------------------|
B|---14-17-----------15--19----------------------------------------------|
G|---------14-18-16------------------------------------------------------|
D|-----------------------------------------------------------------------|
A|-----------------------------------------------------------------------|
E|-----------------------------------------------------------------------|

Clock was like 11 pm when I tabbed this and I figured out the last section
in 2 minutes so dont expect any super amazing tab.
For myself I think this is almost 100% right, I dont know if my guitar is tuned to high 
low but playing this makes it sound very right for me.

Any thing you want to say? Or any corrections?
Send it to fauskanger_42@hotmail.com
Related for Funtwo - Carol Rock tab