Guitaretab - guitar tabs
Song name
# A B C D E F G H I J K L M N O P Q R S T U V W X Y Z

Misc Unsigned Bands - Switch - Broked It tab

#----------------------------------PLEASE NOTE---------------------------------#
#This file is the author's own work and represents their interpretation of the #
#song. You may only use this file for private study, scholarship, or research. #
#------------------------------------------------------------------------------##

                                    BROKED IT
                              As recorded by SWiTCH

Music by SWiTCH
Arranged by SWiTCH
Transcribed by RocktoLive

 Intro
  Q=190
 4/4


 Main Theme
|------------|---------------|------------|----------------|
|------------|---------------|------------|----------------|
|------------|------6--4-----|------------|----------------|
|---------7--|-(7)--------7--|-6---4------|----------------|
|-4---7------|---------------|---------7--|-(7)--7--7--7---|
|------------|---------------|------------|----------------|


|------------|---------------|--------------|--------|
|------------|---------------|--------------|--------|
|------------|---------7--6--|--------------|--------|
|-9---9---9--|-(9)--9--------|-7---7-(7)----|-(7)----|
|------------|---------------|--------------|--------|
|------------|---------------|--------------|--------|


|------------|---------------|-------------|-------------------|
|------------|---------------|-------------|-------------------|
|------------|---------------|-------------|-------------------|
|-7----------|---------7-----|------7---9--|-(9)--9--9-10------|
|-----8---8--|-(8)--8-----8--|-10----------|--------------10---|
|------------|---------------|-------------|-------------------|


  >
|----------|------------|------------|--------|
|----------|------------|------------|--------|
|----------|------------|------------|--------|
|-7--------|-(7)--------|-(7)--------|-(7)----|
|----------|------------|------------|--------|
|----------|------------|------------|--------|


|------------|---------------|------------|----------------|
|------------|---------------|------------|----------------|
|------------|------6--4-----|------------|----------------|
|---------7--|-(7)--------7--|-6---4------|---------7--7---|
|-4---7------|---------------|---------7--|-(7)--7--7--7---|
|------------|---------------|------------|----------------|


|------------|---------------|------------|--------|
|------------|---------------|------------|--------|
|------------|------7--6-----|------------|--------|
|-9---9---9--|-(9)--9--7--5--|-7----------|--------|
|------------|---------------|-----5---5--|-(5)----|
|------------|---------------|------------|--------|

[ Tab from: http://www.guitaretab.com/m/misc-unsigned-bands/100515.html ]
|------------|---------------------|---------------|---------|
|------------|---------------------|---------------|---------|
|------------|---------------------|---------------|---------|
|-7---7---7--|-(7)-------[7]-------|---------------|---------|
|------------|------[8]-------[8]--|-10---10---10--|-(10)----|
|------------|---------------------|---------------|---------|


 Intro w/ Guitar Melody
  Gtr II
|----------|---------------|--------------|---------------|
|-5--------|-(5)-------5h7p|=(5)--3--3----|-(3)----5-3-2--|
|----------|---------------|--------------|---------------|
|----------|---------------|--------------|---------------|
|----------|---------------|--------------|---------------|
|----------|---------------|--------------|---------------|


|----------|-----------------|----------|------------------|
|-3--------|-(3)----2h3p2-0--|----------|------------------|
|----------|-----------------|-2--------|-(2)-4--4-5-4-2-4-|
|----------|-----------------|----------|------------------|
|----------|-----------------|----------|------------------|
|----------|-----------------|----------|------------------|


|----------|--------------------|----------|-------------------------|
|----------|--------------------|----------|-------------------------|
|-5--------|-(5)-5--5-5b7r5-4-5-|-7--------|-(7)-9-9s11-11s12-12s14--|
|----------|--------------------|----------|-------------------------|
|----------|--------------------|----------|-------------------------|
|----------|--------------------|----------|-------------------------|


  Gtr II
   >
|------------------|--------------------|--------------|---------------*|
|------------------|--------------------|--------------|---------------*|
|-14---------------|-(14)---------------|--------------|---------------*|
|------------------|--------------------|--------------|---------------*|
|------------------|--------------------|--------------|---------------*|
|------------------|--------------------|--------------|---------------*|
|
| Gtr I
|------------------|--------------------|--------------|---------------*|
|------------------|--------------------|--------------|---------------*|
|------------------|--------------------|--------------|---------------*|
|--7-7-7-7-7-7-7-7-|---7--7-7-7-7-7-7-7-|-7--7--7--7-7-|-7--7-7-7\-----*|
|--7-7-7-7-7-7-7-7-|---7--7-7-7-7-7-7-7-|-7--7--7--7-7-|-7--7-7-7\-----*|
|--5-5-5-5-5-5-5-5-|---5--5-5-5-5-5-5-5-|-5--5--5--5-5-|-5--5-5-5\-----*|



***************************************************************************************
* Generated using Power Tab Editor by Brad Larsen - http://powertab.guitarnetwork.org *
***************************************************************************************
Related for Switch - Broked It tab
Advertisement will be closed in 10 seconds