Song name
# A B C D E F G H I J K L M N O P Q R S T U V W X Y Z

Misc Unsigned Bands - The Revenge - Memories tab

Hey we are a rock band called The Revenge, check out our youtube page which is 
videos are coming soon. This song is called memories, hope you like it.

Intro- (guitar 1 on clean only) x1
e|---------------------------------------------|
B|---------------------------------------------|
G|-5--5--5-5-----------------------------------|
D|-5--5--5-5--5--5--5-5--7--7--7-7--7--7--7-7--|
A|-3--3--3-3--5--5--5-5--7--7--7-7--7--7--7-7--|
E|------------3--3--3-3--5--5--5-5--5--5--5-5--|

Verse 1- (guitar 1 and 2) x3
e|-------------------------------------------------|
B|-------------------------------------------------|
G|-5--5-5-5-5--------------------------------------|
D|-5--5-5-5-5--5--5-5-5-5--7--7-7-7-7--7--7-7-7-7--|
A|-3--3-3-3-3--5--5-5-5-5--7--7-7-7-7--7--7-7-7-7--|
E|-------------3--3-3-3-3--5--5-5-5-5--5--5-5-5-5--|

Chorus- (guitar 1) x2
e|-------------------------------------------------|
B|-------------------------------------------------|
G|-------------------------------------------------|
D|-5--5-5-5-5--3--3-3-3-3--5--5-5-5-5--3--3-3-3-3--|
A|-5--5-5-5-5--3--3-3-3-3--5--5-5-5-5--3--3-3-3-3--|
E|-5--5-5-5-5--3--3-3-3-3--3--3-3-3-3--1--1-1-1-1--|

(guitar 2) x2
e|-------------------------------------------------|
B|-------------------------------------------------|
G|-5--5-5-5-5--3--3-3-3-3--5--5-5-5-5--3--3-3-3-3--|
D|-5--5-5-5-5--3--3-3-3-3--5--5-5-5-5--3--3-3-3-3--|
A|-5--5-5-5-5--3--3-3-3-3--3--3-3-3-3--1--1-1-1-1--|
E|-------------------------------------------------|

Pre verse- (guitar 1 on clean only)
e|---------------------------------------------|
B|---------------------------------------------|
G|-5--5--5-5-----------------------------------|
D|-5--5--5-5--5--5--5-5--7--7--7-7--7--7--7-7--|
A|-3--3--3-3--5--5--5-5--7--7--7-7--7--7--7-7--|
E|------------3--3--3-3--5--5--5-5--5--5--5-5--|


Verse 2- (guitar 1 and 2) x2
e|-------------------------------------------------|
B|-------------------------------------------------|
G|-5--5-5-5-5--------------------------------------|
D|-5--5-5-5-5--5--5-5-5-5--7--7-7-7-7--7--7-7-7-7--|
A|-3--3-3-3-3--5--5-5-5-5--7--7-7-7-7--7--7-7-7-7--|
E|-------------3--3-3-3-3--5--5-5-5-5--5--5-5-5-5--|


The solo is coming soon. Here's the order:

INTRO
VERSE 1
CHORUS
PRE-VERSE
VERSE 2
CHORUS
SOLO
CHORUS
OUTRO-(same as the intro and pre-verse)

NOTE: GUITAR I IS ON CLEAN THROUGHOUT THE SONG EXCEPT IN THE SOLO, AND GUITAR
2 HAS DISTORTION THE WHOLE SONG.
Tap to rate this tab
 
# A B C D E F G H I J K L M N O P Q R S T U V W X Y Z