Song name
# A B C D E F G H I J K L M N O P Q R S T U V W X Y Z

Misc Unsigned Bands - Crash - 8th Deadliest Sin tab

8th deadliest sin
played in the key of E

By: 80'smetaladdict 
A.K.A Crash

INTRO
e---------------------------------|
b---------------------------------|
g-7p5-7~-5p4-5~-4p2-4~~~~~~~~~~~~-|
D---------------------------------|
A---------------------------------|
E---------------------------------|

VERSE 1

e--------------------------------|
b--------------------------------|
g-9----5-5-2----9----5-5---------|2x
D-9-x--5-5-2-2--9-x--5-5-2~~-2---|
A-7-x--3-3-0-2--7-x--3-3-0---2---|
E--------------------------------|

PRE_CHORUS

e--------------------------------------------|
b--------------------------------------------|
g-2-2-2-2-2-2-2-2----------------------------|
d-2-2-2-2-2-2-2-2--------2-2-2-2-2-2-2-2-----|
a-0-0-0-0-0-0-0-0--3b4-0-2-2-2-2-2-2-2-2-----|
E--------------------------------------------|


CHORUS
                             then
e------------------------|  |--------------|
b------------------------|  |----7b8-------|
g--------------5------2--|4x|-5~-7b8--5~~~-|
D-------2------5------2--|  |--------------|
A-------2------3------0--|  |--------------|
E------------------------|  |--------------|

solo fill for solo 1
(play first section of chorus as much
as necessary)

solo 1
                         ^ ^
e------------------------------------------------
b-8b10~~~----------------------------------------
g---------9-7-7~~-9b11r9-9-7-9~-------/12~-14b16-
D------------x------------------7-7~-------------
A------------------------------------------------
E------------------------------------------------

                ^            ^ ^                            
=--12-----------7-----------------------------------------------------=
=12--14~~---------10b12-7----7----------8b10--------------------------=
=----14~~-----------------9~---7------------9~--10p9p7------7*b8------=
=--------------------------------9~~~------------------9~~~------9-9~-=
=---------------------------------------------------------------------=
=---------------------------------------------------------------------=

            ^ ^        Quick
=-7-------------------------------------|
=--10-7---------------------------------|
=------9p7--9-7-9~~---------------------|
=----------9--------7~------x<~~~~~~~~~-|
=----------------------/7\--x<~~~~~~~~~-|
=---------------------------------------|


VERSE 2

e--------------------------|
b--------------------------|
g-9-------------2----------|4x
D-9----5~~~~--x-2----2-----|
A-7--X-3~~~~--x-0----2-----|
E--------------------------|

solo 2 fill is the same as solo 1 fill

SOLO 2

e----------------7---------------------------------=
b-8b10-8-8b10~~---10-7-----------------------------=
g---------------------9~\----7p5-7~-5p4-5~-4p2-4~--=
D--------------------------------------------------=
A--------------------------------------------------=
E--------------------------------------------------=
                                    

e------------------------------------------12p9--9---------------------=
b-9b10-8b10-------------9--12--9b10r9----------12-12p9--9--------------=
g-9b10------9b10r9------9--12--9b10r9-----------------11-11p9--9~------=
D------------------7~~~---------------11~--------------------11--11~~~-=
A----------------------------------------------------------------------=
E----------------------------------------------------------------------=

e-----------------------------------------------------------------|
b---------------------9------7------------------------------------|
g-----5b7~~~~-7-5-----9------7------------------------------------|
D----------------7~---9------7-----5~~~~------------x<~~~~~~~~~~~-|
A----------------------------------------3~~~-2p==0-x<~~~~~~~~~~~-|
E-----------------------------------------------------------------|

Repeat:
verse 1 (4x) (both guitarists)

OUTRO
e-------------------------|
b--------3b5--3b5--3b5--2-|
g-----------------------2-|
D----2------------------2-|
A----2--------------------|
E-------------------------|

LEGEND
x=scratch
b=bend
r=release
p=pull off
h=hammer on
~=Vibrato
\=slide down
/=slide up
Tap to rate this tab
# A B C D E F G H I J K L M N O P Q R S T U V W X Y Z