Guitaretab - guitar tabs
Song name
# A B C D E F G H I J K L M N O P Q R S T U V W X Y Z

Misc Unsigned Bands - Shoot From The Shadows - J Bomb tab

-------------------------------------------------------------------------------
			     J Bomb - Shoot From The Shadows
-------------------------------------------------------------------------------
Tabbed by: jameskr3w
Email: baker3bueno@hotmail.com

Tuning: Drop D

e|-------------------------------------|
B|--10-10-10-10-10-10------------------|
G|--13-13-13-13-13-13------------------|
D|-------------------------------------|
A|-------------------------------------|
D|-------------------------------------|

e|-------------------------------------|
B|-------------------------------------|
G|-------------------------------------|
D|-00000000-0-0--0-1-2-----------------|
A|-00000000-0-0--0-1-2-----------------|
D|-00000000-0-0--0-1-2-----------------|
[ Tab from: http://www.guitaretab.com/m/misc-unsigned-bands/100567.html ]
e|-------------------------------------|
B|-------------------------------------|
G|-------------------------------------|
D|-00000000-0-0--0-1-3-----------------|
A|-00000000-0-0--0-1-3-----------------|
D|-00000000-0-0--0-1-3-----------------|

e|-------------------------------------|
B|-------------------------------------|
G|-------------------------------------|
D|-00000000-0-0--0-1-2-----------------|
A|-00000000-0-0--0-1-2-----------------|
D|-00000000-0-0--0-1-2-----------------|

e|-----------------------13------------|
B|---------------10h11p10--------------|
G|-------------------------------------|
D|-00000000-0-0------------------------|
A|-00000000-0-0------------------------|
D|-00000000-0-0------------------------|


| /  slide up
| \  slide down
| h  hammer-on
| p  pull-off
| ~  vibrato
| +  harmonic
| x  Mute note
===============================================================================
Related for Shoot From The Shadows - J Bomb tab