Song name
# A B C D E F G H I J K L M N O P Q R S T U V W X Y Z

Misc Unsigned Bands - Shoot From The Shadows - Death Of A Son tab

-------------------------------------------------------------------------------
			     DEATH OF A SON - Shoot From The Shadows
-------------------------------------------------------------------------------
Tabbed by: jameskr3w
Email: baker3bueno@hotmail.com

Tuning: Drop D

e|-----------------------------------------------------------|
B|-----------------------------------------------------------|
G|---10101010---10101010---10h13---10101010--10101010--10\---|
D|-----------------------------------------------------------|
A|-----------------------------------------------------------|
D|-0----------0----------0-------0----------0---------0------|

e|-----------------------------------------------------------|
B|-----------------------------------------------------13----|
G|---10101010---10101010---10h13---10101010--10101010--------|
D|-----------------------------------------------------------|
A|-----------------------------------------------------------|
D|-0----------0----------0-------0----------0---------0------|

e|-----------------------------------------------------------|
B|-----------------------------------------------------------|
G|---10101010---10101010---10h13---10101010--10101010--10\---|
D|-----------------------------------------------------------|
A|-----------------------------------------------------------|
D|-0----------0----------0-------0----------0---------0------|

e|-----------------------------------------------------------|
B|-------------------------------------------13--------------|
G|---10101010---10101010---10h13---10101010------------------|
D|-----------------------------------------------------------|
A|-----------------------------------------------------------|
D|-0----------0----------0-------0----------0----------------|



| /  slide up
| \  slide down
| h  hammer-on
| p  pull-off
| ~  vibrato
| +  harmonic
| x  Mute note
===============================================================================
Tap to rate this tab
# A B C D E F G H I J K L M N O P Q R S T U V W X Y Z