Guitaretab - guitar tabs
Song name
# A B C D E F G H I J K L M N O P Q R S T U V W X Y Z

Misc Unsigned Bands - Black Acid - All Alone tab

Black Acid
Black Acid
All Alone


This is a band we threw together and this is a decent song we wrote but it needs some 
Any suggestions would be nice. Thanks!

Verse


e|--------------------------------------------------|
B|----1---1---1--1---1-1------3---3---3--3---3-3----|
G|----0---0---0--0---0-0------0---0---0--0---0-0----|
D|----2---2---2--2---2-2------0---0---0--0---0-0----|
A|----3---3---3--3---3-3------2---2---2--2---2-2----|
E|--------------------------------------------------|


e|--------------------------------------------------|
B|----1---1---1--1---1-1------3---3---3--3---3-3----|
G|----2---2---2--2---2-2------2---2---2--2---2-2----|
D|----2---2---2--2---2-2------0---0---0--0---0-0----|
A|----0---0---0--0---0-0----------------------------|
E|--------------------------------------------------|


Chorus


e|--------------------------------------------------|
B|--------------------------------------------------|
G|----9-----------------------5---------------------|
D|----9-----------------------5---------------------|
A|----7-----------------------3---------------------|
E|--------------------------------------------------|


e|--------------------------------------------------|
B|--------------------------------------------------|
G|--------------------------------------------------| X2
D|----5-----------------------7---------------------|
A|----5-----------------------7---------------------|
E|----3-----------------------5---------------------|

THEN
e|--------------------------------------------------|
B|--------------------------------------------------|
G|----9-----------------------7---------------------|
D|----9-----------------------7---------------------|
A|----7-----------------------5---------------------|
E|--------------------------------------------------|

[ Tab from: http://www.guitaretab.com/m/misc-unsigned-bands/100587.html ]
e|--------------------------------------------------|
B|--------------------------------------------------|
G|--------------------------------------------------| X1
D|----5-----------------------9---------------------|
A|----5-----------------------9---------------------|
E|----3-----------------------7---------------------|


THEN
e|--------------------------------------------------|
B|--------------------------------------------------|
G|----9-----------------------5---------------------|
D|----9-----------------------5---------------------|
A|----7-----------------------3---------------------|
E|--------------------------------------------------|


e|--------------------------------------------------|
B|--------------------------------------------------|
G|--------------------------------------------------| X1
D|----5-----------------------7---------------------|
A|----5-----------------------7---------------------|
E|----3-----------------------5---------------------|


Solo


e|--------------------------------------------------|
B|--------------------------------------------------|
G|----------------------------------------5-7~~-----|
D|-------2-3-5---3-2-3---3-2------2-3-5-7-----------|
A|---5------------------------5---------------------|
E|--------------------------------------------------|


e|--------------------------------------------------|
B|-------------------10-11-13--11-10-11--11----10-11|
G|----------------12------------------------12------|
D|----3-2---2-0-------------------------------------|
A|--3-----3-----------------------------------------|
E|--------------------------------------------------|

And thatís all so far so it needs more to it and like I said any suggestions please tell me.


         eVAN_______ _____ ___ _______HALEN
             \_____ \  / // / / _____/
                   \ \/ // /_/ /
                    \  // __  /
                     \// / / /
                      / / / /
                      \/ / /
                        / /
                        \/
Related for Black Acid - All Alone tab