Guitaretab - guitar tabs
Song name
# A B C D E F G H I J K L M N O P Q R S T U V W X Y Z

Misc Unsigned Bands - Painted South - Egipshon Walker tab

Intro:
e|-2----3----2----0----2----3--------------2----3----0-------------------3----|
B|-------------------------------3----2-------------------2----2----3---------|
G|--------------------------------------------------------------------------- -|
D|----------------------------------------------------------------------------|
A|----------------------------------------------------------------------------|
E|----------------------------------------------------------------------------|

e|-2--------------------------------------------------------------------------|
B|----------------------------------------------------------------------------|
G|----------------------------------------------------------------------------|
D|----------------------------------------------------------------------------|
A|----------------------------------------------------------------------------|
E|----------------------------------------------------------------------------|


Verse 1:

  the      ocean      rises      as    the     sun      sets

e|-2-------3---2--------------------------------------------------------------|
B|--------------------3---2----------------------3---------2------------------|
G|-------------------------------3-----2--------------------------------------|
D|----------------------------------------------------------------------------|
A|----------------------------------------------------------------------------|
E|----------------------------------------------------------------------------|


   the      eyes      open    up    full   of     regrets 

e|-2---------3-------2-------------------------------3-2----------------------|
B|-----------------------3----2--------------------3-2------------------------|
G|----------------------------------3-------2----3-2--------------------------|
D|----------------------------------------------------------------------------|
A|----------------------------------------------------------------------------|
E|----------------------------------------------------------------------------|


Solo A:
e|---2----3----3----3------------------------2----0---------2----0------------|
B|-----------------------3----3----0----3--------------3----------------------|
G|----------------------------------------------------------------------------|
D|----------------------------------------------------------------------------|
A|----------------------------------------------------------------------------|
E|----------------------------------------------------------------------------|

e|-0----0----3----3----2----2----0-3-2-0-3-2-0-3-2------------0----0----3-----|
B|--------------------------------------------------3---2---------------------|
G|----------------------------------------------------------------------------|
D|----------------------------------------------------------------------------|
A|----------------------------------------------------------------------------|
E|----------------------------------------------------------------------------|

e|-0----3----2----2----3----0----2----3----2----0----3----3----0--0--0--3--3--|
B|----------------------------------------------------------------------------|
G|----------------------------------------------------------------------------|
D|----------------------------------------------------------------------------|
A|----------------------------------------------------------------------------|
E|----------------------------------------------------------------------------|

e|-0-------------2----2--0--0--3--3--2--2--0--0--0--0--0--3--3--3--2--2--0----|
B|-----3----3-----------------------------------------------------------------|
G|----------------------------------------------------------------------------|
D|----------------------------------------------------------------------------|
A|----------------------------------------------------------------------------|
E|----------------------------------------------------------------------------|

e|--0--0--2----3----3----0----0----3----3----2---2--2---2----2----0--3--2--0--|
B|----------------------------------------------------------------------------|
G|----------------------------------------------------------------------------|
D|----------------------------------------------------------------------------|
A|----------------------------------------------------------------------------|
E|----------------------------------------------------------------------------| 

e|-3--2--0--3--2--0--3--2--0--3--2--------3--2--------2--0--------------------|
B|----------------------------------3--2--------3--2--------------------------|
G|----------------------------------------------------------------------------|
D|----------------------------------------------------------------------------|
A|----------------------------------------------------------------------------|
E|----------------------------------------------------------------------------|

Verse 2:
    all    is      not        well   

e|---0------3-------0----------2----------------------------------------------|
B|----------------------------------------------------------------------------|
G|----------------------------------------------------------------------------|
D|----------------------------------------------------------------------------|
A|----------------------------------------------------------------------------|
E|----------------------------------------------------------------------------|

   in      the       firey    pits     of     hell
[ Tab from: http://www.guitaretab.com/m/misc-unsigned-bands/100614.html ]
e|-0-------2----------3--2--------------------3--2----------------------------|
B|-----------------------------3-------2--------------------------------------|
G|----------------------------------------------------------------------------|
D|----------------------------------------------------------------------------|
A|----------------------------------------------------------------------------|
E|----------------------------------------------------------------------------|

Solo B:
e|--0--0--0--0--0--0--0--0--0--0--0--0--0--0--0--0-2-2-2-2-2-2-2-2-2-2-2-2-2--|
B|----------------------------------------------------------------------------|
G|----------------------------------------------------------------------------|
D|----------------------------------------------------------------------------|
A|----------------------------------------------------------------------------|
E|----------------------------------------------------------------------------|

e|-----------------3---2---3---2---3-2--3-2--3-2---3---2---3---2---3-2--3-2---|
B|--3-2--3-2--3-2-------------------------------------------------------------|
G|----------------------------------------------------------------------------|
D|----------------------------------------------------------------------------|
A|----------------------------------------------------------------------------|
E|----------------------------------------------------------------------------|

e|-3-2----3--3--3--3--3--2--2--2--0--0--0--0-----0--3--2----------------------|
B|----------------------------------------------------------------------------|
G|----------------------------------------------------------------------------|
D|----------------------------------------------------------------------------|
A|----------------------------------------------------------------------------|
E|----------------------------------------------------------------------------|

Chorus:

   Egipshon      walker

e|-3--2--3-------0---2--------------------------------------------------------|
B|--------------------------0--0---0------------------------------------------|
G|----------------------------------------------------------------------------|
D|----------------------------------------------------------------------------|
A|----------------------------------------------------------------------------|
E|----------------------------------------------------------------------------|

Solo C:
e|-----------------------------------------------------------------------0----|
B|---2--3--2--3--2--3--2--3--2--3--2--3----------------------------0--0-------|
G|---------------------------------------3--2----------------0--0-------------|
D|---------------------------------------------3--2--2b--p0-------------------|
A|----------------------------------------------------------------------------|
E|----------------------------------------------------------------------------|

e|-0--------------3----2----0----2--0-2-2-0--3--0--0--0--0--0--0--0--0--0-3---|
B|----0--0--------------------------------------------------------------------|
G|----------0--0--------------------------------------------------------------|
D|----------------------------------------------------------------------------|
A|----------------------------------------------------------------------------|
E|----------------------------------------------------------------------------|

Chorus:

   Egipshon    walker

e|-3--2--3------3--0----------------------------------------------------------|
B|----------------------0--0---0----------------------------------------------|
G|----------------------------------------------------------------------------|
D|----------------------------------------------------------------------------|
A|----------------------------------------------------------------------------|
E|----------------------------------------------------------------------------|

Solo D:
e|--0--0--0--2--3--3--3--3--2--2--2--0--0--0--2--3-3-3-2-2-2-2-2-2-2-2-2-2----|
B|---------------------------------------------------------------------------|
G|---------------------------------------------------------------------------|
D|---------------------------------------------------------------------------|
A|---------------------------------------------------------------------------|
E|---------------------------------------------------------------------------|

e|-----------------------0--0--0--0--0--2--3--3--2--3--3--0--0--0--0--0--2----|
B|-3--2--3-2--3--2--3-2-------------------------------------------------------|
G|----------------------------------------------------------------------------|
D|----------------------------------------------------------------------------|
A|----------------------------------------------------------------------------|
E|----------------------------------------------------------------------------|

e|--0-0--0--0--0--0--0--0--0--2-2-2-2-2-2-2-2-2-2-2-2-2-2-2-2-2-2-2-2-2-2-2---|
B|----------------------------------------------------------------------------|
G|----------------------------------------------------------------------------|
D|----------------------------------------------------------------------------|
A|----------------------------------------------------------------------------|
E|----------------------------------------------------------------------------|

e|--0--------------------2---3------------------------------------------------|
B|----0-----------2---3-------------------------------------------------------|
G|------0--2---3--------------------------------------------------------------|
D|----------------------------------------------------------------------------|
A|----------------------------------------------------------------------------|
E|----------------------------------------------------------------------------|
Related for Painted South - Egipshon Walker tab
Advertisement will be closed in 10 seconds