Song name
# A B C D E F G H I J K L M N O P Q R S T U V W X Y Z

Misc Unsigned Bands - We Couldnt Think Of A Better Name - Random Anthem tab

Okay, the intro is mostly two-finger-tapping and it sounds really sweet.
Since it is two-finger-tapping, I won't write the pull-offs and hammer-ons.
This is the intro from a song that my band made up and it is my first tab
so please rate it fair.

Standard Tuning


*Starts out with feedback*


Intro

|--9-2-5-9-2-5-9-2-5-9-2-5-9-2-5-9-2-5-9-2-5-9-2-5-10-2-5-10-2-5-10-2-5-10|
|-------------------------------------------------------------------------|
|-------------------------------------------------------------------------|
|-------------------------------------------------------------------------|
|-------------------------------------------------------------------------|
|-------------------------------------------------------------------------|

|--7-2-5-7-2-5-7-2-5-7-2-5-9-2-5-9-2-5-9-2-5-9-2-5------------------------|
|-------------------------------------------------------------------------|
|-------------------------------------------------------------------------|
|-------------------------------------------------------------------------|
|-------------------------------------------------------------------------|
|-------------------------------------------------------------------------|

*Repeat on B (2nd) string*


|-----------------------------------------------------|
|-----------------------------------------------------|
|-----------------------------------------------------|
|---5--------7---------2------------------------------|
|---5-(x8)---7-(x8)----2-(let ring)-------------------|
|---3--------5---------0------------------------------|


That's the end of the intro and my tab for now. I might tab the rest later
if this gets rated good. Please give it a thumbs-up!!!!!


-Synester Gates
Tap to rate this tab
 
# A B C D E F G H I J K L M N O P Q R S T U V W X Y Z