Song name
# A B C D E F G H I J K L M N O P Q R S T U V W X Y Z

Misc Unsigned Bands - An Endless Sporadic - Impulse tab

|----------------------------------------------------|
|----------------------------------------------------|
|----------------------------------------------------|
|--------14----16--------14----16-------14----14-----|
|--16-16----16----16-16-----16----16-16----16----16--|
|----------------------------------------------------|


|----------------------------------------------------|
|----------------------------------------------------|
|----------------------------------------------------|
|--------16----16-------16-------18----18-------18---|
|--17-17----17----17-17----17-17----17----17-17------|
|----------------------------------------------------|


|----------------------------------------------------|
|----------------------------------------------------|
|----------------------------------------------------|
|-----19-19----19-------19----21-21----21-------21---|
|--16-------16----16-16----16-------16----16-16------|
|----------------------------------------------------|


|----------------------------------------------------|
|----------------------------------------------------|
|------------------------22/23-----21-----19-18-16\14|
|-----23-23----23------------------------------------|
|--17-------17----17-17---------19----17-------------|
|----------------------------------------------------|

just repeat it and thats about it for the intro.

well this is my first tab so let me know how i did for a newb
Tap to rate this tab
# A B C D E F G H I J K L M N O P Q R S T U V W X Y Z