Song name
# A B C D E F G H I J K L M N O P Q R S T U V W X Y Z

Misc Unsigned Bands - White Diamond - Dig It Out tab

Help us improve GuitareTab! Take a short survey!
------5-5-----5-5-5]
--6-6-6-6-6-6-6-6-6]      X3
--7-7-----7-7------]
-------------------]
-------------------]
-------------------]

[--3-3-3-3-3-3-3-3-3-3-3-3-3-3-3-3-------------------3-3-3-3-3-3-3-3-|
[-----------------------------------1-1-1-1-1-1-1-1------------------|
[--------------------------------------------------------------------|
[-----------------------------------2-2-2-2-2-2-2-2------------------|
[--1-1-1-1-1-1-1-1-1-1-1-1-1-1-1-1--3-3-3-3-3-3-3-3--1-1-1-1-1-1-1-1-|
[--3-3-3-3-3-3-3-3-3-3-3-3-3-3-3-3-------------------3-3-3-3-3-3-3-3-|


--2-2-2-2----------|
--3-3-3-3--1-1-1-1-|
--2-2-2-2----------|   then repeat twice. really easy so hope u enjoy it.
-----------2-2-2-2-|
-----------3-3-3-3-|
-------------------|
Related for White Diamond - Dig It Out tab