Song name
# A B C D E F G H I J K L M N O P Q R S T U V W X Y Z

Misc Unsigned Bands - Fallen Short - Claustrophobia tab

Fun Little rocking out song, for youth rallies.  Heavy distortion with half a second 
=)

Capo 4th fret


Verse Riff
e--------4---------------4-------------4-------------4----------------------|
B----------7---------------7-------------7-------------7--------------------|
G------------4--------4------4-------------4-------4-----4------------------|
D-----6-------------6--------------6-------------6--------------------------|
A---6-------------7--------------6------------7-----------------------------|
E-4----------------------------4--------------------------------------------|

                 PM ->
e--------4-------------6-7-6-4--4~------------------------------------------|
B----------7---------7----------7~------------------------------------------|
G------------4-----6------------4~------------------------------------------|
D-----6----------4--------------6~------------------------------------------|
A---6---------------------------7~------------------------------------------|
E--4------------------------------------------------------------------------|


Chorus
e--4--4--6h76--4--4---6-7-6-4--|
B--7--7--7-----7--7---7-7-7-4--|
G--4--4--6-----4--4---6-6-6-4--|
D--6--6--4-----6--6---4-4-4-4--|
A--6--6--------7--7------------|
E--4--4------------------------|

have fun with it =)     Myspace.com/fallenshortrocks
Tap to rate this tab
 
# A B C D E F G H I J K L M N O P Q R S T U V W X Y Z