Song name
# A B C D E F G H I J K L M N O P Q R S T U V W X Y Z

Misc Unsigned Bands - Walking Out Blind - Parchment tab

-------------------------------------------------------------------------------
			     PARCHMENT - Walking Out Blind
-------------------------------------------------------------------------------
Tabbed by: jameskr3w
Email: baker3bueno@hotmail.com

Tuning: Drop D

Guitar 1
e|--------------------------------------|
B|--------------------------------------|
G|--------------------------------------|X2
D|--00000--0000--00000-00-05-58---------|
A|--00000--0000--00000-00-05-58---------|
D|--00000--0000--00000-00-05-58---------|

Guitar 1
e|--------------------------------------|
B|--------------------------------------|
G|--------------------------------------|
D|--00000--0000--00000-00-05-58---------|
A|--00000--0000--00000-00-05-58---------|
D|--00000--0000--00000-00-05-58---------|

Guitar 2
e|------------------------------------------------|
B|------------------------------------------------|
G|----------------------------3p2-----------------|
D|----3p2-0--3p2-0--3p2-0--3p2---3p0--------------|
A|-------3------3------3------3-------------------|
D|------------------------------------------------|



| /  slide up
| \  slide down
| h  hammer-on
| p  pull-off
| ~  vibrato
| +  harmonic
| x  Mute note
===============================================================================
Tap to rate this tab
 
# A B C D E F G H I J K L M N O P Q R S T U V W X Y Z