Song name
# A B C D E F G H I J K L M N O P Q R S T U V W X Y Z

Misc Unsigned Bands - Bryans Band - Gwapo Song tab

hi...im the everfamous Bryan Dano...                      
                        My song solo
note : P := 14 pull off 12
       B := use your tremelo to bend them both slowly up
       S := slowly slide both down.
You can do this....It's just a piece of cake.. 

Solo
w/ wah
1|--------------------------|---------------------------------|
2|-15-15-15-12----12--------|------12-12----15b17-15b17-(15)\-|
3|-------------14-----14b16-|-(14)-------14-------------------|
4|--------------------------|---------------------------------|
5|--------------------------|---------------------------------|
6|--------------------------|---------------------------------|

1|-------------------------------------------------|
2|-------------------------------------------------|
3|-12/14-14-14-14\12-12-12-12/14-14-14-14\12-12-12-|
4|-------------------------------------------------|
5|-------------------------------------------------|
6|-------------------------------------------------|

1|-----------------------------------------|
2|-----------------------------------------|
3|-14p12-----------------------------------|
4|-------14--14p12-------------------------|
5|-----------------14--14p12\10------------|
6|------------------------------12-~-(12)\-|

1|-------12-12-12-------12-12-12-------12-12-12-------12-12-12-|
2|-15b17----------15b17----------15b17----------15b17----------|
3|-------------------------------------------------------------|
4|-------------------------------------------------------------|
5|-------------------------------------------------------------|
6|-------------------------------------------------------------|

1|-------12-12-12h15p12-12h15p12-12h15p12-12-15-12-12-14-14-|
2|-15b17----------------------------------------------------|
3|----------------------------------------------------------|
4|----------------------------------------------------------|
5|----------------------------------------------------------|
6|----------------------------------------------------------|

1|-17p14----17p14----17p14-19p15----19p15----19p15-|
2|-------15-------15-------------17-------17-------|
3|-------------------------------------------------|
4|-------------------------------------------------|
5|-------------------------------------------------|
6|-------------------------------------------------|

1|-21p17----21p17----21p17----22b24-(22)\------|-----------------|
2|-------17-------17-------17-------------9b10-|-(9)---9b10---9--|
3|----------------------------------------9b11-|-(9)---9b11---9--|
4|---------------------------------------------|-----------------|
5|---------------------------------------------|-----------------|
6|---------------------------------------------|-----------------|

1|-------------------------------|----------------------------------|
2|-9b10--9b10-----------------10-|-(10)----10-8-7---8\7---7---------|
3|-9b11--9b11--7--9--------7-----|----------------9-----9---9-7---7-|
4|--------------------7h9--------|------------------------------9---|
5|-------------------------------|----------------------------------|
6|-------------------------------|----------------------------------|

1|-----------------------------|-----------------------------------|
2|-----------------------------|-----------------------------------|
3|-9p7-------------------------|-16b18-14-----14-16b18--14------14-|
4|-----9p7---7-9-7-------------|----------16----------------16-----|
5|---------9-------9-8-7-------|-----------------------------------|
6|-----------------------10-7\-|-----------------------------------|

1|-----------------------------------|
2|-----------------------------------|
3|-16b18-14----14-16b18-14--------14-|
4|----------16-------------16--16----|
5|-----------------------------------|
6|-----------------------------------|
					 Grad. release
1|---------------------------------------|------------------------------|
2|-------17-------17------------17-------|------------------------------|
3|-16b18----16b18----16b18---------16b18-|-(16)-\1/-\1/-\1/-\1/-\1/-\1/-|
4|---------------------------------------|------------------------------|
5|---------------------------------------|------accentuate-w/bar--------|
6|---------------------------------------|------------------------------|

1|-21p17----21p17----21p17----21p17----21p17----21p17----|
2|-------17-------17-------17-------17-------17-------17-|
3|-------------------------------------------------------|
4|-------------------------------------------------------|
5|-------------------------------------------------------|
6|-------------------------------------------------------|

1|-22b24--22-22-22b24--22-22-22b24-~-~-(22)\-|
2|-------------------------------------------|
3|-------------------------------------------|
4|-------------------------------------------|
5|-------------------------------------------|
6|-------------------------------------------|

1|-----------------------------|-------------------------|
2|-10p8p7----------------------|-------------------------|
3|--------9--9p7---------------|-------------------------|
4|---------------9--9p7-5--7b9-|-5-----------------------|
5|-----------------------------|----7---(7)-~-~-~----5h7-|
6|-----------------------------|------------w/bar--------|

1|-----------------------|-----------------------------|
2|-----------------------|-----------------------------|
3|-----------------------|-----------------------------|
4|-----------------------|-----------------------------|
5|-4---(4)-~-~-~-~-----0-|--2--\1/-\1/-\1/-\1/-\1/-\1/-|
6|-----------------------|-----------------------------|
Tap to rate this tab
# A B C D E F G H I J K L M N O P Q R S T U V W X Y Z