Song name
# A B C D E F G H I J K L M N O P Q R S T U V W X Y Z

Misc Unsigned Bands - Lost In The System - Instrumental tab

-------------------------------------------------------------------------------
			     Instrumental - Lost In The System
-------------------------------------------------------------------------------
Tabbed by: Matthew Wallis
Email: mattwallis_11@hotmail.com

Tuning: EADGBe

Start With A D Chord
Then Strum A Chord 4 times, do this 8 times
Then Play Em 4 times and then play this tab straight after

e|-----------------------------------------------------------------------------|
B|-----------------------------------------------------------------------------|
G|-----------------------------------------------------------------------------|
D|-----------------------------------------------------------------------------|
A|-----------------------------------------------------------------------------|
E|-3-0-3-5---------------------------------------------------------------------|

Then Repeat The First Section Again

Then Play:
B B
B B
B B
B B B B B B B B

Then Play Em and after playing Em Play:
e|---------------------------------------------------------------------------|
B|---------------------------------------------------------------------------|
G|---------------------------------------------------------------------------|
D|---------------------------------------------------------------------------|
A|---------------------------------------------------------------------------|
E|-5-5-5-5-4-4-4-4-----------------------------------------------------------|

Play The Above Twice

Then play:
B B
B B
B B
B B B B B B B B

Then Play Em and after playing Em Play:
e|---------------------------------------------------------------------------|
B|---------------------------------------------------------------------------|
G|---------------------------------------------------------------------------|
D|---------------------------------------------------------------------------|
A|---------------------------------------------------------------------------|
E|-5-5-5-5-4-4-4-4-----------------------------------------------------------|
Make sure you only play the above once

Pause for 8 beats then play B 30 Times after that play this tab:
e|-----------------------------------------------------------------------------|
B|-2--2--2--2--5--5--5--5--7--7--7--7--9--9--9--9------------------------------|
G|--2--2--2--2--5--5--5--5--7--7--7--7--9--9--9--9-----------------------------|
D|-----------------------------------------------------------------------------|
A|-----------------------------------------------------------------------------|
E|-----------------------------------------------------------------------------|
 Play This Twice
Then Play:
e|---------------------------------------------------------------------------|
B|---------------------------------------------------------------------------|
G|-------------------------7777777799999999----------------------------------|
D|-77777777-10-10-10-10-10-10-10-10------------------------------------------|
A|---------------------------------------------------------------------------|
E|---------------------------------------------------------------------------|
Then

e|----------------------------------10-10-10-10-10-10-10-10-12-12-12-12-12-12-12-12--|
B|-10-10-10-10-10-10-10-10-13-13-13-13-13-13-13-13-----------------------------------|
G|-----------------------------------------------------------------------------------|
D|-----------------------------------------------------------------------------------|
A|-----------------------------------------------------------------------------------|
E|-----------------------------------------------------------------------------------|

To Finish Play An A Chord

| /  slide up
| \  slide down
| h  hammer-on
| p  pull-off
| ~  vibrato
| +  harmonic
| x  Mute note
===============================================================================
Tap to rate this tab
# A B C D E F G H I J K L M N O P Q R S T U V W X Y Z