Song name
# A B C D E F G H I J K L M N O P Q R S T U V W X Y Z

Misc Unsigned Bands - No Butts - Mrs Potato Head Wouldnt Be Happy tab

"Mrs. Potato Head Wouldn't Be Happy"
No Butts - Instrumental Institution

~ = let it ring
e = eleventh fret
h = hammer on
p = pull off
x = mute
. = palm mute
/ = slide

Guitar 1: Mike
Guitar 2: Vernon



Intro: (Guitar 2)

   Mr. Potato Head would you...
e]-----------------------------[
b]-----------------------------[
g]--7~------9~--e-e--e--9--7~--[
d]--7~--7~--9~--e-e--e--9--7~--[
a]--5~--7~--7~--9-9--9--7--5~--[
e]------5~---------------------[

Verse: (Guitar 1)

A.) e]---------------------------[
    b]---------------------------[
    g]--7777--------9999-ee--99--[
    d]--7777--7777--9999-ee--99--[ x2
    a]--5555--7777--7777-99--77--[
    e]--------5555---------------[

(Guitar 2)

A.) e]---------------------------   ----------------------------------[
    b]---------------------------   ----------------------------------[
    g]--7777--------9999-ee--99--   --77-ee-99-1414/ee--77-ee-9-9-77--[
    d]--7777--7777--9999-ee--99--   --xx-xx-xx-x x /xx--xx-xx-x-x-xx--[ 
    a]--5555--7777--7777-99--77--   --55-99-77-1212/99--55-99-7-7-55--[
    e]--------5555---------------   ----------------------------------[<--- riff
 over Mike's guitar part

B.) e]------------------------------------------------------------------------[
    b]------------------------------------------------------------------------[
    g]--7777777777777777------------------------------------------------------[
    d]--7777777777777777-7777777777777777-9999999999999999-33333333-22222222--[  x2
    a]--5555555555555555-7777777777777777-9999999999999999-33333333-22222222--[
    e]-------------------5555555555555555-7777777777777777-55555555-44444444--[
  (pm)........................................................................(pm)

(Guitar 1)

B.) e]------------------------------------------------------------------------[
    b]------------------------------------------------------------------------[
    g]--7777777777777777------------------------------------------------------[
    d]--7777777777777777-7777777777777777-9999999999999999-33333333-22222222--[
    a]--5555555555555555-7777777777777777-9999999999999999-33333333-22222222--[
    e]-------------------5555555555555555-7777777777777777-55555555-44444444--[
  (pm)........................................................................(pm)

B.) e]------------------------------------------------------------------------[
    b]------------------------------------------------------------------------[
    g]--7777777777777777------------------------------------------------------[
    d]--7777777777777777-7777777777777777-9999999999999999-33333333-22222222--[
    a]--5555555555555555-7777777777777777-9999999999999999-33333333-22222222--[
    e]-------------------5555555555555555-7777777777777777-55555555-44444444--[
        .. .. . .. ..    .. .. . .. ..    .. .. . .. ..    <--(listen if not clear on palm muting)

Pre Chorus:

(Guitar 1

C.) e]---------------------[
    b]---------------------[
    g]--99999999-77777777--[
    d]--xxxxxxxx-xxxxxxxx--[ x2
    a]--77777777-55555555--[
    e]---------------------[

(Guitar 2)

C.) e]-----------------------[
    b]-----------------------[
    g]------------7777-------[
    d]--9999-7777-5555-55-77-[ x2
    a]--9999-7777-5555-55-77-[
    e]--7777-5555------33-55-[


(Chorus)



etc. etc.
Tap to rate this tab
 
# A B C D E F G H I J K L M N O P Q R S T U V W X Y Z