Song name
# A B C D E F G H I J K L M N O P Q R S T U V W X Y Z

Misc Unsigned Bands - As Seasons Subside - My Strings Attached tab

Intro:


|-----------------------------------------------------|
|-----------------------------------------------------|
|-----------0---------------0----------4--------4-----|
|-------5-4---4---------5-4---4------5---5----5---5---|
|--5/7----------5--5\7----------5--3--------3-------3-|
|-----------------------------------------------------|


Verse:

|-----------------------------------------------------|
|-----------------------------------------------------|
|-------------4p0-------------------------------------|
|--999977775-----5p0-4p0-7p0--5p0--4h5p4--------------|
|--777755553----------------------------5h7-----------|
|-----------------------------------------------------|

last time through the verse there's a pinch  at the end:


|------|
|------|
|------|
|--4*b-
|------|
|------|

|----------------------------|
|----------------------------|
|--------4-4-----4-----4-----|
|--------5-5-----5-----5-----|
|--------3-3-----3-----3-----|
|--0-0-0-----0-0---0-0-------|
pm . . .     . .   . .


right before the breakdown:

|----------------------------------------------------------|
|----------------------------------------------------------|
|-4-4444444444-4-------------------4-5-0-------------------|
|-5-5555555555-5-4-444444444445-7-0------------------------|
|-3-3333333333-3-5-55555555555-----------------------------|
|----------------------------------------------------------|
pm  ..........     ............ . .. . .


breakdown:

|----------------------------------------------------|
|---------------(5)---(7)-------------(5)---(7)------|
|-----------------(5)---(7)-------------(5)---(7)----|
|--5--5-5-5--55------------5--5-5-5--55--------------|
|--7--7-7-7--77------------3--3-3-3--33--------------|
|----------------------------------------------------|
pm    . .    ..               . .    ..


ending part:

|--------------------------------------------------|
|--------------------------------------------------|
|--------------------------------------------------|
|------5---4-4-----5---4-4-----5---4-4-----5---4-4-|
|--7-7---7-----7-7---7-----3-3---3-----3-3---3-----|
|--------------------------------------------------|
pm . .   .     . .   .     . .   .     . .   .

|------------------------------------------------------|
|--(12)----(12)----(7)---(7)---(5)---(5)---(7)---(7)---|
|-----(12)----(12)---(7)---(7)---(5)---(5)---(7)---(7)-|
|------------------------------------------------------|
|------------------------------------------------------|
|------------------------------------------------------|

ending thinger:

|------------|
|--(5)-------|(7)
|----(5)-----|
|------------|
|------------|
|------------|
Tap to rate this tab
# A B C D E F G H I J K L M N O P Q R S T U V W X Y Z