Song name
# A B C D E F G H I J K L M N O P Q R S T U V W X Y Z

Misc Unsigned Bands - Zues International - Zues Hing tab

Standard tuning
This is what it does tho whole song for the solo over the rythm

E--------------------------------------------|
A--------------------------------------------|
D----------------7-5-------------------------|
G---5/7--7-7-5----------3-1------------------|
B------------------------------2-4-----------|
e----------------------------------1/3-------|

E--------------------------------------------|
A---------------------8-5--8h9h10------------|
D----------------7-5-------------------------|
G---5/7----7-7-5-----------------------------|
B--------------------------------------------|
e----------------------------------------19b-|
Tap to rate this tab
# A B C D E F G H I J K L M N O P Q R S T U V W X Y Z