Song name
# A B C D E F G H I J K L M N O P Q R S T U V W X Y Z

Misc Unsigned Bands - Our Fangs Our Pistols - Dont Get Your Hopes Up tab

guitar 1
e|------------------------------------|
b|------------------------------------|
G|------------------------------------|
D|--00000--00000--0000--0--0----------|
A|--00000--00000--0000--0--0----------|
D|--00000--00000--0000--0--0---3*-----|
    .....  .....  ....  .  . 
guitar 2
e|------------------------------------|
b|------------------------------------|
G|------------------------------------|
D|--00000--00000--0000--0--0----------|
A|--00000--00000--0000--0--0----------|
D|--00000--00000--0000--0--0---5*-----|
    .....  .....  ....  .  . 

Guitar 1
e|------------------------------------|
b|------------------------11---11-----|
G|------------------------14---14-----|
D|--00000--00000--0000--0-----0-------|
A|--00000--00000--0000--0-----0-------|
D|--00000--00000--0000--0-----0-------|
    .....  .....  ....  .     . 

Guitar 2
e|------------------------------------|
b|------------------------11---11-----|
G|------------------------14---14-----|
D|--00000--00000--0000--0-----0-------|
A|--00000--00000--0000--0-----0-------|
D|--00000--00000--0000--0-----0-------|
    .....  .....  ....  .     .

Tap to rate this tab
 
# A B C D E F G H I J K L M N O P Q R S T U V W X Y Z