Song name
# A B C D E F G H I J K L M N O P Q R S T U V W X Y Z

Misc Unsigned Bands - Crash - Where Did The Rock Go tab

Where Did The Rock Go
By: 80'smetaladdict
In the key of A


INTRO (light distortion)
e----------------------------------3--3----------------|
b----------------3-3--3------------3--3-3-3--3---------|
g-----------2--2-2-2--2------------0--0-2-2--2---------|2x
d-------2-5-2--2---------------2-5-0--0----------------|
a-0-3-4-----0--0---------0-3-4-----x--x----------------|
E----------------------------------3--3----------------|

VERSE 1

e---------------------------------------------|
b-------------3--3----------------------------|
g-2--2--------2--2------2--2------------------|2x
d-2--2--------0--0------2--2--------2--2------|
a-0--0--5-3-4-0--0------0--0--5-3-4-2--2------|
E---------------------------------------------|

CHORUS (medium distortion)

e----------------------------------3--3-2-2--2--|
b----------------3-3--3------------3--3-3-3--3--|
g-----------2--2-2-2--2------------0--0-2-2--2--|4x
d-------2-5-2--2---------------2-5-0--0---------|
a-0-3-4-----0--0---------0-3-4-----x--x---------|
E----------------------------------3--3---------|

on 4th time of chorus
e-----------------------|
b----------------3-3--3-|
g-----------2--2-2-2--2-|
d-------2-5-2--2--------|
a-0-3-4-----0--0--------|
E-----------------------|

then do this
e-------------------|
b-------------------|
g-22222222----------|
d-22222222-22222222-|
a-00000000-22222222-|
E-------------------|

VERSE 1 (again)

e---------------------------------------------|
b-------------3--3----------------------------|
g-2--2--------2--2------2--2------------------|2x
d-2--2--------0--0------2--2--------2--2------|
a-0--0--5-3-4-0--0------0--0--5-3-4-2--2------|
E---------------------------------------------|

CHORUS 2 (medium distortion)

e-----------------------------------------------|
b------------------3--3-------------------------|
g-----------2--2-2-2--2------------0--0-0-------|4x
d-------5-2-2--2-2-------------5-2-0--0-0-2--2--|
a-0-3-4-----0--0-0-------0-3-4-----x--x-x-2--2--|
E----------------------------------3--3-3-------|

on 4th time
e-----------------------|
b------------------3--3-|
g-----------2--2-2-2--2-|
d-------5-2-2--2-2------|
a-0-3-4-----0--0-0------|
E-----------------------|

then do this
e-------------------|
b-------------------|
g-22222222----------|
d-22222222-22222222-|
a-00000000-22222222-|
E-------------------|

BRIDGE
e-----------------------------------------------|
b-9-9----9----9-9----9----9-9----9--------------|
g-9-9-7~-9-7~-9-9-7~-9-7~-9-9-7~-9-7~-9~~~~~~~~-|
d-9-9-7~-9-7~-9-9-7~-9-7~-9-9-7~-9-7~-----------|
a-----------------------------------------------|
E-----------------------------------------------|

RHYTHM SOLO FILL (build up on distortion)
e------------------------------------3--3-----------|
b----------------3-3--3--3-----------3--3-----------|
g-----------2--2-2-2--2--2-----------0--0-2-2--2--2-|2x
d-------2-5-2--2-----------------2-5------2-2--2--2-|
a-0-3-4-----0--0-----------0-3-4----------0-0--0--0-|
E---------------------------------------------------|

SOLO (obviously distorted :] )
                        ^  ^ ^          ^   ^      
e------------------------------------------------7-----------------=
b-15b17-15b17~~~\--9b11----------------------------10-7------------=
g------------------9b11-9--7---7~-10b11-7-9~------------9b10r-7----=
d----------------------------x--------------7-9~---------------9~\-=
a------------------------------------------------------------------=
E------------------------------------------------------------------=
  
                               s.b.
=--------------------------------------------------17-----------------=
=15b17~-15b17~-17-14----------15b16-----20b22-20b22--20-17---17-20b21~=
=-------------------16-14----------16~--------------------19~---------=
=------------------------16-14----------------------------------------=
=---------------------------------------------------------------------=
=---------------------------------------------------------------------=
                               
CHORUS II (distorted)

e--------------------------------------3--------2--------3-------=
b----------3-----------------33--3-----3--------3--------3-------=
g-2--------2--------2--------22--2-----0--------2--------0-------=
d-2-----------------2------------------0-----------------0-------=
a-0-----------------0------------------x-----------------x-------=
E--------------------------------------3-----------------3-------=

e-2-------------------------------------------------------22-2------|
b-3-----------------3-----------------33--3-----333-33333-33-3------|
g-2--------2--------2--------2--------22--2-----000-00000-22-2------|
d----------2-----------------2------------------000-00000-----------|
a----------0-----------------0------------------xxx-xxxxx-----------|
E-----------------------------------------------333-33333-----------|


then go back and do only chorus 4x
(just do the 1st 2 staffs of chorus then do the 3rd staff)

INTERLUDE (distorted)

e------------------------------------------------7----------=
b--------------------------------------9b11-9b11--10-7-7----=
g-----------7b9-7b9-5~~-5~p0--------------------------9-7---=
d-------2-5------------------------2-5-------------------9~-=
a-0-3-4----------------------0-3-4--------------------------=
E-----------------------------------------------------------=

=-------------------7------------------------------17----------=
=-----------9b11-----10-7-7------20b22-20b22-20b22~---20p17----=
=-----------9b11-7~------9-7-------------------------------19~-=
=-------2-5-----------------9~---------------------------------=
=-0-3-4--------------------------------------------------------=
=--------------------------------------------------------------=

=-------------------------12-------------------------------------|
=-15b16-----------------12---------------------------------------|
=-15b16----12-----14b15-----14~~~~~~~~-12------7=h9~-9=p7~-5~-x\-|
=-------------14~-------------------------/9~-----------------x\-|<-|
=-------------------------------------------------------------x\-|  |
=----------------------------------------------------------------|  |
                                              this is a pick scrape-|
(pause) for about 4 seconds

OUTRO (light distortion)
    
e----------------------------------------------------------|
b----------------------------------------------------------|
g-------------------2----------------0--0--222222222222222-|
d-------2-5---2--2--0----------2-5---0--0--222222222222222-|
a-0-3-4-------0--0-------0-3-4-------x--x--000000000000000-|
E------------------------------------3--3------------------|
PM_________              _________        <     rhythm    >
                                            cont. pattern
=----------------------------------------------------=
=----------------------------------------------------=
=-9-7----7\4-5-2-----------------------------------2-=
=-----9~--------4-2--------------------x<~~~~~~~~~-2-=
=------------------4-2-----------------x<~~~~~~~~~-0-=
=----------------------3b=5~~~~~~~~~~~---------------=

Legend
b=bend
r=release
p=pull off
h=hammer on
x=scratch
(0)b=(0)=hold bend for a sec
x<~~~~~
x<~~~~~=pick scrape
/=slide up
\=slide down
PM=palm mute
(0)~x\=vibrato then scratch and slide down or up
(0)=optional note
Tap to rate this tab
# A B C D E F G H I J K L M N O P Q R S T U V W X Y Z