Song name
# A B C D E F G H I J K L M N O P Q R S T U V W X Y Z

Misc Unsigned Bands - Petruccifever - The Rush tab

---\\THE RUSH//--- (intro riff) by PetrucciFever

(http://fr.youtube.com/watch?v=g0o4YZSXzeM)

Tab by thedarkflowkiller

Tuning: Standard (EADGBE)

Riff 
|--------------------------------|-----------------------------------|
|--------------------------------|-----------------------------------|
|--------------------------------|-----------------------------------|
|-------------------------7-6----|------------------9-7-6--7-6-------|
|-----5---7---8---7---5-------8-7|-----5---7---8----------8-----8-5--|
|-0-0---0---0---0---0---0--------|-0-0---0---0---0-------------------|



|---------------------------------|----------------------------------|
|---------------------------------|----------------------------------|
|---------------------------------|------------7-10-9~~~~------------|
|-------------------------7-6-----|------6-7-9-----------------------|
|-----5---7---8---7---5-------8-7-|5-7-8------------------12\--------|
|-0-0---0---0---0---0---0---------|----------------------------------|



J-flow_killer@hotmail.fr     for any comments !

CHEERS


Tap to rate this tab
# A B C D E F G H I J K L M N O P Q R S T U V W X Y Z