Song name
# A B C D E F G H I J K L M N O P Q R S T U V W X Y Z

Misc Unsigned Bands - The Forbidden Remedy - 247 tab

The guitar is set on wail

|--------------------------------------------------------------|
|--------------------------------------------------------------|
|--------------------------------------------------------------|
|0000-0000-0000-0000-0000-0000-00000000------------------------|
|0000-0000-0000-0000-0000-0000-00000000------------------------|
|7777-0000-3333-5555-1111-0000-66666666------------------------|

|--------------------------------------------------------------------------|
|--------------------------------------------------------------------------|
|--------------------------------------------------------------------------|
|0000-0000-0000-0000-0000-0000-00000000-0000-00000000----------------------|
|0000-0000-0000-0000-0000-0000-00000000-0000-00000000----------------------|
|7777-0000-3333-5555-1111-0000-1212121212121212-13131313-1515151515151515--|
                                     ^             ^           ^
                                    12s           13s         15s

|--------------------0-----------------------------------------|
|--------------------0-----------------------------------------|
|--------------------0-----------------------------------------|
|0~~~~~~~~-----------0-----------------------------------------|
|0~~~~~~~~whammy-bar-0-----------------------------------------|
|2~~~~~~~~-----------2-----------------------------------------|
Tap to rate this tab
# A B C D E F G H I J K L M N O P Q R S T U V W X Y Z