Song name
# A B C D E F G H I J K L M N O P Q R S T U V W X Y Z

Misc Unsigned Bands - Triquetra - Sons Of Thunder tab

Help us improve GuitareTab! Take a short survey!
played in standard tuning, DigiTech Grunge run through a Kustom 212 100W amp, or a Line6 
III amp using "Master of Puppets" distortion

Riff 1 (clean)
E:-3-3-3-3-4-4-4-4-1-1-1-1-3-3-3-3------------------------|
B:1-1-1-1-1-1-1-1-1-1-1-1-1-1-1-1-------------------------|
G:--------------------------------------------------------|
D:--------------------------------------------------------|
A:--------------------------------------------------------|
E:--------------------------------------------------------|

Riff 2 (distorted using DigiTech Grunge or Spider III Master of Puppets)

E:--------------------------------------------------------|
B:--------------------------------------------------------|
G:--------------------------------------------------------|
D:--------------------------------------------------------|
A:--------------------------------------------------------|
E:x-x-x-x-2-x-x-2-x-x-6-5-x-x-x-x-2-x-x-2-x-x-8-7---------|

repeat first half of riff2 (ending with 6-5)

E:--------------------------------------------------------|
B:--------------------------------------------------------|
G:--------------------------------------------------------|
D:--------------------------------------------------------|
A:2---4-6-x-x-4-x-4-x-x-x-4-x-4-x-x-x-4-x-4-x-x-x-4-6-----|
E:0---2-4-x-x-2-x-2-x-x-x-2-x-2-x-x-x-2-x-2-x-x-x-2-4-----|
Related for Triquetra - Sons Of Thunder tab