Song name
# A B C D E F G H I J K L M N O P Q R S T U V W X Y Z

Misc Unsigned Bands - Ivan Ick I -becoming The Greater tab

uuh, my first tab I wrote, its ok i gess, its mainly for my hombres back @ Spillane. 
luck at getting better than me, one of yall may..... someday.

Becoming the Greater

its all speedpicing so jest hit as many open d notes as long as its not too long man, 
crappy when ya hold da speedpicking,and FU Conner 4 not believin in da power of metal...

         E---------------------------------------------------------------|
         B---------------------------------------------------------------|
         G---------------------------------------------------------------|
         D---00000000000075400000000000075400000000000045000450004500045-|
         A---------------------------------------------------------------|
         E---------------------------------------------------------------|

         E--------------------------------------------------------------|
         B--------------------------------------------------------------|
         G--------------------------------------------------------------|
         D--5-4-0-0-0-0-4----7-7-7-9-9-9-11-11-11-12-12-12-11-7---------|
         A--0-0-0-5-4-0-5----x-x-x-x-x-x-x--x--x--x--x--x--x--x---------|
         E-------------------5-5-5-7-7-7-9--9--9--10-10-10-9--5---------|

         E--------------------------------------------------------------|
         B--------------------------------------------------------------|
         G--------------------------------------------------------------|
         D--------------------------------------------------------------|
         A--7-5p4h5p4h5p4------7-----7-9-7-5-4-10979757545-10979757545--|
         E---------------5-4-5---4-5------------------------------------|

          first guitarist n our skool 2 find me (good luck) with this tab mastered is n 
next band. its kinda short and chopy but just see what you can do. live to shred man.
Tap to rate this tab
# A B C D E F G H I J K L M N O P Q R S T U V W X Y Z