Song name
# A B C D E F G H I J K L M N O P Q R S T U V W X Y Z

Misc Unsigned Bands - Kody Penick - Praise Song tab

I wrote this song in a couple weeks. It's really not that hard but it sounds kinda cool. 
was tired of writing music in standard tuning so this song is in drop D. This song is 
kinda repetitive but it's only my second song.

Intro (x2)
e|--------------------------------------------------------------------|
B|--------------------------------------------------------------------|
G|--------------------------------------------------------------------|
D|------12-0-9-0-7-0----9-0-7-0-5-0---7-0-5-0-7-0-9-0-12-0-9-0-11-0---| x2
A|--9-9--------------7--------------5---------------------------------|
D|--9-9--------------7--------------5---------------------------------|

Verse
e|--------------------------------------------------|
B|--------------------------------------------------|
G|--------------------------------------------------|
D|--9-9-9-12--7-7-7-9--5-5-5--7-7-7--5-5-5--7-7-7---|
A|--9-9-9-9---7-7-7-7--5-5-5--5-5-5--5-5-5--5-5-5---|
D|--9-9-9-9---7-7-7-7--5-5-5--5-5-5--5-5-5--5-5-5---|

e|-----------------------------------------------------------|
B|-----------------------------------------------------------|
G|-------------------------------------------------7-7-7-7---|
D|--9-9-9-12--7-7-7-9--5-5-5--7-7-7--5-5-5--7-7-7--5-5-5-5---|
A|--9-9-9-9---7-7-7-7--5-5-5--5-5-5--5-5-5--5-5-5--5-5-5-5---|
D|--9-9-9-9---7-7-7-7--5-5-5--5-5-5--5-5-5--5-5-5--5-5-5-5---|

Chorus (x2)
e|---------------------------------------------|
B|---------------------------------------------|
G|---------------------------------------------|
D|--12-12-12--11-11-11--12-12-12--11-11-11-----|
A|--9--9--9---9--9--9---9--9--9---9--9--9------|
D|--9--9--9---9--9--9---9--9--9---9--9--9------|

e|---------------------------------------------|
B|---------------------------------------------|
G|----------------9-9-9---------7-7-7--7-7-7---|
D|--9-9-9--7-7-7--7-7-7--7-7-7--7-7-7--7-7-7---|
A|--7-7-7--7-7-7--7-7-7--7-7-7--5-5-5--5-5-5---|
D|--7-7-7--7-7-7--7-7-7--7-7-7--0-0-0--5-5-5---|

Verse
e|--------------------------------------------------|
B|--------------------------------------------------|
G|--------------------------------------------------|
D|--9-9-9-12--7-7-7-9--5-5-5--7-7-7--5-5-5--7-7-7---|
A|--9-9-9-9---7-7-7-7--5-5-5--5-5-5--5-5-5--5-5-5---|
D|--9-9-9-9---7-7-7-7--5-5-5--5-5-5--5-5-5--5-5-5---|

e|-----------------------------------------------------------|
B|-----------------------------------------------------------|
G|-------------------------------------------------7-7-7-7---|
D|--9-9-9-12--7-7-7-9--5-5-5--7-7-7--5-5-5--7-7-7--5-5-5-5---|
A|--9-9-9-9---7-7-7-7--5-5-5--5-5-5--5-5-5--5-5-5--5-5-5-5---|
D|--9-9-9-9---7-7-7-7--5-5-5--5-5-5--5-5-5--5-5-5--5-5-5-5---|

Chorus (x2)
e|-------------------------------------------|
B|-------------------------------------------|
G|-------------------------------------------|
D|--12-12-12--11-11-11--12-12-12--11-11-11---|
A|--9--9--9---9--9--9---9--9--9---9--9--9----|
D|--9--9--9---9--9--9---9--9--9---9--9--9----|

e|---------------------------------------------|
B|---------------------------------------------|
G|----------------9-9-9---------7-7-7--7-7-7---|
D|--9-9-9--7-7-7--7-7-7--7-7-7--7-7-7--7-7-7---|
A|--7-7-7--7-7-7--7-7-7--7-7-7--5-5-5--5-5-5---|
D|--7-7-7--7-7-7--7-7-7--7-7-7--0-0-0--5-5-5---|

Verse
e|--------------------------------------------------|
B|--------------------------------------------------|
G|--------------------------------------------------|
D|--9-9-9-12--7-7-7-9--5-5-5--7-7-7--5-5-5--7-7-7---|
A|--9-9-9-9---7-7-7-7--5-5-5--5-5-5--5-5-5--5-5-5---|
D|--9-9-9-9---7-7-7-7--5-5-5--5-5-5--5-5-5--5-5-5---|

e|-----------------------------------------------------------|
B|-----------------------------------------------------------|
G|-------------------------------------------------7-7-7-7---|
D|--9-9-9-12--7-7-7-9--5-5-5--7-7-7--5-5-5--7-7-7--5-5-5-5---|
A|--9-9-9-9---7-7-7-7--5-5-5--5-5-5--5-5-5--5-5-5--5-5-5-5---|
D|--9-9-9-9---7-7-7-7--5-5-5--5-5-5--5-5-5--5-5-5--5-5-5-5---|

End (x3)
e|------------------------|
B|------------------------|
G|--7-7-7--7-7-7--7-7-7---|
D|--7-7-7--7-7-7--7-7-7---|
A|--5-5-5--0-0-0--5-5-5---|
D|--0-0-0--0-0-0--5-5-5---|

Finish off with a
e|------|
B|------|
G|--7---|
D|--7---|
A|--0---|
D|--0---|
Tap to rate this tab
# A B C D E F G H I J K L M N O P Q R S T U V W X Y Z