Song name
# A B C D E F G H I J K L M N O P Q R S T U V W X Y Z

Misc Unsigned Bands - Dirty Flowers - Chocolate Covered Candy tab



^ = pick upward

  G          A         Em
|----3----3---------------0----0--|
|----0----0--2------------0----0--|
|-0--0----0--2---------0--0----0--|
|-0----0--0--2---------2----2--2--|
|-2----2--2--0--0------2----2--2--|
|-3----3--3-------3-2--0----0--0--|
     ^    ^  ^            ^    ^
  G          A         Em
|-2--3-3--3--0---------0--0-0--0--|
|-0--0-0--0--2---------0--0-0--0--|
|-0--0-0--0--2---------0--0-0--0--|
|-0--0-0--0--2---------2--2-2--2--|
|-2--2-2--2--0--0------2--2-2--2--|
|-3--3-3--3-------3-2--0--0-0--0--|
     ^    ^  ^            ^    ^
Tap to rate this tab
 
# A B C D E F G H I J K L M N O P Q R S T U V W X Y Z