Song name
# A B C D E F G H I J K L M N O P Q R S T U V W X Y Z

Misc Unsigned Bands - Playradioplay - Elephants As Big As Whales tab

I know for a fact that this isn't the absolute correct version of the song because I 
seen Dan himself play it live, but this version sounds okay. I recorded this version for my 
page and have been complemented on it many times. Do here it is:

"Your name is on..."
e|---------------|
B|-3-------------|
G|---3---3---3---| keep playing those two strings until you get to...
D|---------------|
A|-----1---1---1-|
E|---------------|

"Well so is mine."
e|--------------------------------|
B|--------------3-----------------|
G|-3---3---3------3---3---3---3---| play that until...
D|------------------1---1---1---1-|
A|---1---1------------------------|
E|--------------------------------|

       "Your life made a turn for you..."
e|---------------|
B|-3-------------|
G|---3---3---3---| keep playing that...
D|---------------|
A|-----1---1---1-|
E|---------------|

"And gave you time."
e|--------------------------------|
B|--------------3-----------------|
G|-3---3---3------3---3---3---3---| play that until...
D|------------------1---1---1---1-|
A|---1---1------------------------|
E|--------------------------------|

"footsteps you found..."
e|--------------------------------------|
B|--------------------------------------|
G|-----3---3---3---3---3---3------------|play until...
D|-------1---1---0---0---0---0----------|
A|--------------------------------------|
E|--------------------------------------|

"tolerance and cleanliness..."
e|--------------------------------------|
B|--------------------------------------|
G|-3---3---3---3---3---3---3------------|play until...
D|---1---1---1---1---1---1--------------|
A|--------------------------------------|
E|--------------------------------------|

"and I found you."
(Back to the begining)

Those are the only three different finger positions used in the song.
Chorus is a little diffirent but you can figure it out yourself. There's no fun in 
it all figured out for you : )

Taaaaddaaaahhhh!!!!
Tap to rate this tab
 
# A B C D E F G H I J K L M N O P Q R S T U V W X Y Z