Song name
# A B C D E F G H I J K L M N O P Q R S T U V W X Y Z

Misc Unsigned Bands - Bob Saget - Old Engilsh Folk Song tab

It sounds pretty good to me

This is basically the whole song
e|-------2-----2-----2-----2-------------------------|
B|-----3-----3-----3-----3-------2-----2-----2-----2-|
G|---2-----2-----2-----2-------0-----0-----0-----0---|
D|---------------------------2-----2-----2-----2-----|
A|---------------------------------------------------|
E|---------------------------------------------------|


at one point he does it like this
e|--------------------------|
B|------2-----2h3---3-----3-|
G|----0-----0-----0-----0---|
D|--2-----2-----2-----2-----|
A|--------------------------|
E|--------------------------|






Tap to rate this tab
# A B C D E F G H I J K L M N O P Q R S T U V W X Y Z