Song name
# A B C D E F G H I J K L M N O P Q R S T U V W X Y Z

Misc Unsigned Bands - Loss Of A Hero - No Bears Left In The Woods tab

Loss Of A Hero
No Bears Left In The Woods

  Intro
D|--------------------------------------------------|
A|--------------------------------------------------|
F|--------------------------------------------------|X2
C|--------------------------------------------------|
G|---5-5h8---4-4h7-7-5-4*---8-8h12---7-7h10-10-8-7*-|
C|-00-0----00-0-----------88-8-----77-7-------------|
   .. .    .. .           .. .     .. .

D|------------------------------------------------|
A|------------------------------------------------|
F|------------------------------------------------|X4
C|------------------------------------------------|
G|---5-5h8---4-4h7-7-5-4---8-8h12---7-7h10-10-8-7-|
C|-00-0----00-0----------88-8-----77-7------------|
   .. .    .. .           .. .     .. .

D|-----------------------------------------------------|
A|-----------------------------------------------------|
F|-----------------------------------------------------|X2
C|-----------------------------------------------------|
G|---8-8h12---7-7h10-10-8-7*---8-8h12---7-7h12-10-8-7*-|
C|-00-0-----00-0-------------88-8-----77-7-------------|
   .. .    .. .           .. .     .. .

D|----
A|----
F|----
C|-0--
G|-0--
C|-0--

D|--------------------------|
A|--------------------------|
F|--------------------------|
C|--------------------------|X4
G|--------------------------|
C|-00000-00000-00000-00000--|
   ..... ..... ..... .....

D|------------------------------------------------|
A|------------------------------------------------|
F|------------------------------------------------|X5
C|------------------------------------------------|
G|---5-5h8---4-4h7-7-5-4---8-8h12---7-7h10-10-8-7-|
C|-00-0----00-0----------88-8-----77-7------------|
   .. .    .. .           .. .     .. .

D|-----------------------------------------|
A|-----------------------------------------|
F|-----------------------------------------|
C|------------------------------------7----|
G|---5-5h8---4-4h7-7-5-4---8-8h12--88-7----|
C|-00-0----00-0----------88-8------88-7-3*-|
   .. .    .. .           .. .     ..

D|--------------------------------------------|
A|--------------------------------------------|
F|--------------------------------------------|
C|--------------------------------------------|X2
G|-0-0-0-0-0--0-0-0-0-0--0-0-0-0-0--0-0-0-0-0-|
C|-0-0-0-0-0--0-0-0-0-0--0-0-0-0-0--0-0-0-0-0-|
   . . . . .  . . . . . . . . . .   . . . . .
Tap to rate this tab
# A B C D E F G H I J K L M N O P Q R S T U V W X Y Z