Song name
# A B C D E F G H I J K L M N O P Q R S T U V W X Y Z

Misc Unsigned Bands - Complication - Ballad Of A Japanese Zoo Keeper On Weed tab

This is a song by a band that is virtually unheard of, and they have not actually 
any material yet
This is possibly to be their first single
Standard Tuning (There is also lots of distortion needed on all parts)

This is definiteley correct

Main riff (intro and verses 1 & 2)
e-----------------------------|
B-----------------------------|
G-----------------------------|
D---4-----4-----4-----4---6-4-|
A-2---2-4---4-6---6-4---4-----|
E-----------------------------|

Chorus
e-----------------------------------|
B-----------------------------------|
G-4-4-4-4-4-4-4-4-4-6-6-6-6-8-8-6-6-|
D-4-4-4-4-4-4-4-4-4-6-6-6-6-8-8-6-6-|
A-2-2-2-2-2-2-2-2-2-4-4-4-4-6-6-4-4-|
E-----------------------------------|

Solo
e-14-14-14-14-14-14-14-14-13-13-13-14-14-14-16-14-|
B-------------------------------------------------|
G-------------------------------------------------|
D-------------------------------------------------|
A-------------------------------------------------|
E-------------------------------------------------|

e-16-14-16-18-16-14-16-14-14-14-14-14-14-14-14-13-13-13-14-14-14-16-14-|
B----------------------------------------------------------------------|
G----------------------------------------------------------------------|
D----------------------------------------------------------------------|
A----------------------------------------------------------------------|
E----------------------------------------------------------------------|

e-16-14-16-14-16-14-16-14-/18-16-14-13-14bu-|
B-------------------------------------------|
G-------------------------------------------|
D-------------------------------------------|
A-------------------------------------------|
E-------------------------------------------|

Bit after solo (palm muted)
e---------------------------------|
B---------------------------------|
G---------------------------------|
D-4-4-4-4-4-4-4-4-4-4-4-4-4-4-4-4-|
A-2-2-2-2-2-2-2-2-4-4-4-4-6-6-4-4-|
E---------------------------------|

Order:
Intro x4
Verse 1 x4
Chorus x4
Verse 2 x4
Chorus x4
Solo
Bit after solo x4
Chorus x8

You wont of heard of our band, nor heard our music, but if you find this song by 
learn it and reccomend it to a freind

thanks
Poosaviour93
Tap to rate this tab
# A B C D E F G H I J K L M N O P Q R S T U V W X Y Z