Song name
# A B C D E F G H I J K L M N O P Q R S T U V W X Y Z

Misc Unsigned Bands - Black Revlover - Burning Without Flames tab

#----------------------------------PLEASE NOTE---------------------------------#
#This file is the author's own work and represents their interpretation of the #
#song. You may only use this file for private study, scholarship, or research. #
#------------------------------------------------------------------------------##


Gtr I (E A D G B E) - 'lead guitar'
Gtr II (E A D G B E) - 'lead solo guitar'
Gtr III (E A D G) - 'Untitled'

   Intro
   4/4
    Gtr I
    Q.  Q.   Q     +Q  E  Q.  Q.  E   H E Q.   Q     +Q   Q.  Q        +Q     4x
||--------------|-------------------|-------------|--------------|------------||
||o-------------|-------------------|-------------|--------------|-----------o||
||--------------|-------------------|-------------|--------------|------------||
||--5---8---10--|-(10)---10---8---3-|-5---8---10--|-(10)--8---5--|-----(5)----||
||o-5---8---10--|-(10)---10---8---3-|-5---8---10--|-(10)--8---5--|-----(5)---o||
||--3---6----8--|--(8)----8---6---1-|-3---6----8--|--(8)--6---3--|-----(3)----||
|
|   Gtr III
|   Q   Q.   Q     +Q  E  Q.  Q.  E   H E Q.   Q     +Q   Q.  Q    +Q         4x
||--------------|-------------------|-------------|--------------|------------||
||o-------------|-------------------|-------------|--------------|-----------o||
||o-------------|-------------------|-------------|--------------|-----------o||
||--3---6----8--|--(8)----8---6---1-|-3---6----8--|--(8)--6---3--|-(3)--------||


 Verse
  E E E E E E E E    E E E E E E E E    E E E E E E E E   E E E E E E E E
|-----------------|------------------|------------------|------------------|
|-----------------|------------------|------------------|------------------|
|-----------------|------------------|------------------|------------------|
|-----------------|------------------|------------------|------------------|
|-----------------|------------------|------------------|-----------1------|
|-3-3-3-3-3-3-3-3-|--6-6-6-6-6-6-6-6-|--1-1-1-1-1-1-1-1-|-3-1-3-1-3---3-1--|
|
| E E E E E E E E    E E E E E E E E    E E E E E E E E   E E E E E E E E
|-----------------|------------------|------------------|------------------|
|-----------------|------------------|------------------|------------------|
|-----------------|------------------|------------------|-----------1------|
|-3-3-3-3-3-3-3-3-|-/6-6-6-6-6-6-6-6-|-\1-1-1-1-1-1-1-1-|-3-1-3-1-3---3-1--|


   E E E E E E E E    E E E E E E E E    E E E E E E E E   E E E E E E E E
|------------------|------------------|------------------|-----------------|
|------------------|------------------|------------------|-----------------|
|------------------|------------------|------------------|-----------------|
|------------------|------------------|------------------|-----------------|
|--5-5-5-5-5-5-5-5-|--8-8-8-8-8-8-8-8-|--3-3-3-3-3-3-3-3-|-----------1-----|
|--3-3-3-3-3-3-3-3-|--6-6-6-6-6-6-6-6-|--1-1-1-1-1-1-1-1-|-3-1-3-1-3---3-1-|
|
|  E E E E E E E E    E E E E E E E E    E E E E E E E E   E E E E E E E E
|------------------|------------------|------------------|-----------------|
|------------------|------------------|------------------|-----------------|
|------------------|------------------|------------------|-----------1-----|
|-/3-3-3-3-3-3-3-3-|-/6-6-6-6-6-6-6-6-|-\1-1-1-1-1-1-1-1-|-3-1-3-1-3---3-1-|


  E E E E E E E E    E E E E E E E E    E E E E E E E E   E E E E E E E E
|-----------------|------------------|------------------|-----------------|
|-----------------|------------------|------------------|-----------------|
|-----------------|------------------|------------------|-----------------|
|-----------------|------------------|------------------|-----------------|
|-5-5-5-5-5-5-5-5-|--8-8-8-8-8-8-8-8-|--3-3-3-3-3-3-3-3-|-----------1-----|
|-3-3-3-3-3-3-3-3-|--6-6-6-6-6-6-6-6-|--1-1-1-1-1-1-1-1-|-3-1-3-1-3---3-1-|
|
| E E E E E E E E    E E E E E E E E    E E E E E E E E   E E E E E E E E
|-----------------|------------------|------------------|-----------3-----|
|-5-5-5-5-5-5-5-5-|-/8-8-8-8-8-8-8-8-|-\3-3-3-3-3-3-3-3-|-5-3-5-3-5---5-3-|
|-----------------|------------------|------------------|-----------------|
|-----------------|------------------|------------------|-----------------|


   E E E E E E E E    E E E E E E E E    E E E E E E E E   E E E E E E E E
|------------------|------------------|------------------|-----------------|
|------------------|------------------|------------------|-----------------|
|------------------|------------------|------------------|-----------------|
|------------------|------------------|------------------|-----------------|
|------------------|------------------|------------------|-----------1-----|
|--3-3-3-3-3-3-3-3-|--6-6-6-6-6-6-6-6-|--1-1-1-1-1-1-1-1-|-3-1-3-1-3---3-1-|
|
|  E E E E E E E E    E E E E E E E E    E E E E E E E E   E E E E E E E E
|------------------|------------------|------------------|-----------------|
|------------------|------------------|------------------|-----------------|
|------------------|------------------|------------------|-----------1-----|
|-/3-3-3-3-3-3-3-3-|-/6-6-6-6-6-6-6-6-|-\1-1-1-1-1-1-1-1-|-3-1-3-1-3---3-1-|


   E E E E E E E E    E E E E E E E E      E E E E E E E E   E E E E E E E E
|------------------|--------------------|------------------|------------------|
|------------------|--------------------|------------------|------------------|
|------------------|--------------------|------------------|------------------|
|------------------|------------8-8-7---|------------------|------------------|
|------------------|--------------------|------------------|-----------1------|
|--3-3-3-3-3-3-3-3-|--6-6-6-6-6---------|--1-1-1-1-1-1-1-1-|-3-1-3-1-3---3-1--|
|
|  E E E E E E E E    E E E E   E E E E    E E E E E E E E   E E E E E E E E
|------------------|--------------------|------------------|------------------|
|------------------|--------------------|------------------|------------------|
|------------------|--------------------|------------------|-----------1------|
|-/3-3-3-3-3-3-3-3-|-/6-6-6-6---6-6-6-6-|-\1-1-1-1-1-1-1-1-|-3-1-3-1-3---3-1--|


   E E E E E E E E    E E E E E E E E    E E E E E E E E   E E E E E E E E
|------------------|------------------|------------------|-----------------|
|------------------|------------------|------------------|-----------------|
|------------------|------------------|------------------|-----------------|
|------------------|------------------|------------------|-----------------|
|--5-5-5-5-5-5-5-5-|--8-8-8-8-8-8-8-8-|--3-3-3-3-3-3-3-3-|-----------1-----|
|--3-3-3-3-3-3-3-3-|--6-6-6-6-6-6-6-6-|--1-1-1-1-1-1-1-1-|-3-1-3-1-3---3-1-|
|
|  E E E E E E E E    E E E E E E E E    E E E E E E E E   E E E E E E E E
|------------------|------------------|------------------|-----------------|
|------------------|------------------|------------------|-----------------|
|------------------|------------------|------------------|-----------1-----|
|-/3-3-3-3-3-3-3-3-|-/6-6-6-6-6-6-6-6-|-\1-1-1-1-1-1-1-1-|-3-1-3-1-3---3-1-|


   Chorus
    Q.       Q.     Q   Q.       Q.     Q
||--------------------|-------------------|
||o-------------------|-------------------|
||--------------------|-------------------|
||--5--------3--------|-8--------5--------|
||o-5--------3--------|-8--------5--------|
||--3--------1--------|-6--------3--------|
|
|   E  E E E E  E E E   E  E E E E  E E E
||--------------------|-------------------|
||o-------------------|-------------------|
||o-------------------|-------------------|
||--3--3-3-1-1--1-1-1-|-6--6-6-3-3--3-3-3-|


  Q.   Q.       Q
|-------------------|-------------------------|
|-------------------|-------------------------|
|-------------------|-------------------------|
|-5----3------------|-------------------------|
|-5----3------------|-------------------------|
|-3----1------------|-------------------------|
|
| E  E E  E E E E E    E  E  E  E  E  E   Q
|-------------------|-------------------------|
|-------------------|-------------------------|
|-------------------|-------------------------|
|-3--3-3--1-1-1-1-1-|-13-13-13-13-13-13--13\--|


  Q.   Q.         Q
|-------------------|------------------------|
|-------------------|------------------------|
|-------------------|------------------------|
|-8----5------------|------------------------|
|-8----5------------|------------------------|
|-6----3------------|------------------------|
|
| E  E E  E E E E E    E  E  E  E  E  E  Q
|-------------------|------------------------|
|-------------------|------------------------|
|-------------------|------------------------|
|-6--6-6--3-3-3-3-3-|-15-15-15-15-15-15-15\--|


  Q.   Q.       Q     Q.   Q.   +Q
|-------------------|-------------------------||
|-------------------|------------------------o||
|-------------------|-------------------------||
|-5----3------------|-8----5----(5)-----------||
|-5----3------------|-8----5----(5)----------o||
|-3----1------------|-6----3----(3)-----------||
|
| E  E E  E E E E E   E  E E  E  E  E E E E
|-------------------|-------------------------||
|-------------------|------------------------o||
|-------------------|------------------------o||
|-3--3-3--1-1-1-1-1-|-6--6-6--3--3--3-3---0---||


 Guitar Solo
  Gtr II
   ~~~~~~~                       ~~~
   Q.  Q.   Q            Q.      Q.     Q
|---------------------|---------------------|
|---------------------|---------------------|
|-12------------------|-15------12----------|
|-----15--------------|---------------------|
|---------------------|---------------------|
|---------------------|---------------------|
|
|  E   E  E E E E E E    E  E E  E  E E E E
|---------------------|---------------------|
|---------------------|---------------------|
|---------------------|--1--1-1-------------|
|--3---3--3-1-1-1-1-1-|----------3--3-3-3-3-|


   ~~~~~~~~~             ~~~~~~~~~
   Q.    Q.     Q        Q.    Q.       Q
|-------------------|----------------------|
|-------------------|----------------------|
|-12----------------|---15----12-----------|
|-------15----------|----------------------|
|-------------------|----------------------|
|-------------------|----------------------|
|
|  E  E  E  E E E E   E  E  E  E  E E E E
|-------------------|----------------------|
|-------------------|----------------------|
|-------------------|-1--1--1--------------|
|--3--3--3--1-1-1-1-|----------3--3-3-3-3--|


   E.  E.  Q.     Q         S  +S.        E   +E   Q.  Q
|------------------------|---------------------------------|
|------------------------|-13-(13)-------11--(11)----------|
|-12--12-----------------|------------------------12-------|
|---------15-------------|---------------------------------|
|------------------------|---------------------------------|
|------------------------|---------------------------------|
|
|  E   E   E  E E E E E     S  +S  E +E   Q.           Q
|------------------------|---------------------------------|
|------------------------|---------------------------------|
|------------------------|--3--(3)-1-(1)-------------------|
|--3---3---3--1-1-1-1-1--|----------------3----------------|


      ~~~~~~~~~        ~~~~~~~~
      Q.    Q.   Q     Q.   Q.    Q
|----15----13-------|-18---15--------|
|-------------------|----------------|
|-------------------|----------------|
|-------------------|----------------|
|-------------------|----------------|
|-------------------|----------------|
|
|  Q     Q
|-------------------|----------------|
|-------------------|----------------|
|-------------------|----------------|
|-15s====0----------|----------------|


           ~~~                  ~~~
   E.  E.  Q.    Q      E.  E.  Q.     Q
|-18--15--13---------|-20--18--15---------|
|--------------------|--------------------|
|--------------------|--------------------|
|--------------------|--------------------|
|--------------------|--------------------|
|--------------------|--------------------|
|
|--------------------|--------------------|
|--------------------|--------------------|
|--------------------|--------------------|
|--------------------|--------------------|


   E  E  E  E  E  E  E  E    E  E  E  E  E  E  E  E
|-20-18-15-20-18-15-20-18-|-15-13-18-15-13-18-15-13-|
|-------------------------|-------------------------|
|-------------------------|-------------------------|
|-------------------------|-------------------------|
|-------------------------|-------------------------|
|-------------------------|-------------------------|
|
|-------------------------|-------------------------|
|-------------------------|-------------------------|
|-------------------------|-------------------------|
|-------------------------|-------------------------|


 tapping part(solo)
   T  T  T  T  T  T  T  T  T  T  T  T  T  T  T  T
   S  S  S  S  S  S  S  S  S  S  S  S  S  S  S  S
|-20-18-15-20-18-15-20-18-15-20-18-15-20-18-15-20-|
|-------------------------------------------------|
|-------------------------------------------------|
|-------------------------------------------------|
|-------------------------------------------------|
|-------------------------------------------------|
|
|-------------------------------------------------|
|-------------------------------------------------|
|-------------------------------------------------|
|-------------------------------------------------|


   T  T  T  T  T  T  T  T  T  T  T  T  T  T  T  T
   S  S  S  S  S  S  S  S  S  S  S  S  S  S  S  S
|-18-15-13-18-15-13-18-15-13-18-15-13-18-15-13-18-|
|-------------------------------------------------|
|-------------------------------------------------|
|-------------------------------------------------|
|-------------------------------------------------|
|-------------------------------------------------|
|
|-------------------------------------------------|
|-------------------------------------------------|
|-------------------------------------------------|
|-------------------------------------------------|


   T  T  T  T  T  T  T  T  T  T  T  T  T  T  T  T
   S  S  S  S  S  S  S  S  S  S  S  S  S  S  S  S
|-15-20-18-15-20-18-15-20-18-15-20-18-15-20-18-15-|
|-------------------------------------------------|
|-------------------------------------------------|
|-------------------------------------------------|
|-------------------------------------------------|
|-------------------------------------------------|
|
|-------------------------------------------------|
|-------------------------------------------------|
|-------------------------------------------------|
|-------------------------------------------------|


   T  T  T  T  T  T  T  T  T  T  T  T  T  T  T  T
   S  S  S  S  S  S  S  S  S  S  S  S  S  S  S  S
|-18-15-13-18-15-13-18-15-13-18-15-13-18-15-13-18-|
|-------------------------------------------------|
|-------------------------------------------------|
|-------------------------------------------------|
|-------------------------------------------------|
|-------------------------------------------------|
|
|-------------------------------------------------|
|-------------------------------------------------|
|-------------------------------------------------|
|-------------------------------------------------|


 end tapping part
       ~~~              ~~~              ~~~                       ~~~
   Q.  Q.   Q      Q.   Q.   Q      Q.   Q.   Q               Q.   Q.   Q
|-15--13--------|-18---15-------|--15---13-----------------|-18---15---------|
|---------------|---------------|--------------------------|-----------------|
|---------------|---------------|--------------------------|-----------------|
|---------------|---------------|--------------------------|-----------------|
|---------------|---------------|--------------------------|-----------------|
|---------------|---------------|--------------------------|-----------------|
|
|---------------|---------------|--------------------------|-----------------|
|---------------|---------------|--------------------------|-----------------|
|---------------|---------------|--------------------------|-----------------|
|---------------|---------------|--------------------------|-----------------|


   ~~~~~~~~
   Q.   Q.   Q     W
|-15------------|-18tr15----------------|
|------18-------|-----------------------|
|---------------|-----------------------|
|---------------|-----------------------|
|---------------|-----------------------|
|---------------|-----------------------|
|
|---------------|-----------------------|
|---------------|-----------------------|
|---------------|-----------------------|
|---------------|-----------------------|


           W               W         W
|---------15tr13--------|-18s=======15----|
|-----------------------|-----------------|
|-----------------------|-----------------|
|-----------------------|-----------------|
|-----------------------|-----------------|
|-----------------------|-----------------|
|
|-----------------------|-----------------|
|-----------------------|-----------------|
|-----------------------|-----------------|
|-----------------------|-----------------|


 Chorus
  Gtr I
  Q.     Q.     Q     Q.     Q.     Q     E E E E E E E E    E E E E E E E E
|-------------------|-------------------|------------------|------------------|
|-------------------|-------------------|------------------|------------------|
|-------------------|-------------------|------------------|------------------|
|-5------3----------|-8------5----------|------------------|------------------|
|-5------3----------|-8------5----------|------------------|------------------|
|-3------1----------|-6------3----------|-3-3-3-3-3-3-3-3--|-6-6-6-6-6-6-6-6--|
|
| E  E E E  E E E E   E  E E E  E E E E   E E E E E E E E    E E E E E E E E
|-------------------|-------------------|------------------|------------------|
|-------------------|-------------------|---------5-5-5-5--|---------8-8-8-8--|
|-------------------|-------------------|------------------|------------------|
|-3--3-3-1--1-1-1-1-|-6--6-6-3--3-3-3-3-|-3-3-3-3----------|-6-6-6-6----------|


    E E E E E E E E   E E E E E E E E   E E E E E E E E   E E E E E E   E E
||------------------|-----------------|-----------------|--------------------||
||o-----------------|-----------------|-----------------|-------------------o||
||------------------|-----------------|-----------------|--------------------||
||------------------|-----------------|-----------------|--------------------||
||o-----------------|-----------------|-----------------|-----------1-------o||
||--1-1-1-1-1-1-1-1-|-3-3-3-3-3-3-3-3-|-6-6-6-6-6-6-6-6-|-3-1-3-1-3-----3-1--||
|
|   E E E E E E E E   E E E E E E E E   E E E E E E E E   E E E E E E E E
||------------------|-----------------|-----------------|--------------------||
||o---3---3---3---3-|---5---5---5---5-|---8---8---8---8-|-------------------o||
||o-----------------|-----------------|-----------------|-----------1-------o||
||--1---1---1---1---|-3---3---3---3---|-6---6---6---6---|-3-1-3-1-3---3-1----||


  Gtr III
  Q E Q E Q E Q E Q E Q E E E E Q   W        Q         Q        Q
|-5-5-3-3-1-1-0-0-------------0-----------------------------------|
|-----------------3-3-1-1-0-1-------------------------------------|
|-------------------------------3------------0s========9S=======0-|
|-----------------------------------------------------------------|


    Gtr I
    W          W          W          H.   e e     4x
||-----------|----------|----------|--------------||
||o----------|----------|----------|-------------o||
||-----------|----------|----------|--------------||
||--5--------|-8--------|-3--------|-5----3-5-----||
||o-5--------|-8--------|-3--------|-5----3-5----o||
||--3--------|-6--------|-1--------|-3----1-3-----||
|
|   W          W          W          W            4x
||-----------|----------|----------|--------------||
||o----------|----------|----------|-------------o||
||o----------|----------|----------|-------------o||
||--3--------|-6--------|-1--------|-3------------||


   S  S  S  S  S  S  S  S  S  S  S  S  S  S  S  S
|-13-15----13-15----15-18----15-18----20-18----18-|
|-------15-------15-------18-------18-------20----|
|-------------------------------------------------|
|-------------------------------------------------|
|-------------------------------------------------|
|-------------------------------------------------|
|
|  W
|-------------------------------------------------|
|-------------------------------------------------|
|-------------------------------------------------|
|--3----------------------------------------------|


   Q.   Q.  Q      Q.   Q.  Q
|-20---18------|--18---15--------|
|--------------|-----------------|
|--------------|-----------------|
|--------------|-----------------|
|--------------|-----------------|
|--------------|-----------------|
|
|  W               W
|--------------|-----------------|
|--------------|-----------------|
|--------------|-----------------|
|--6-----------|---1-------------|


     Q.   Q.   Q       S  S  S  S  S  S  S  S  S  S  S  S  S  S  S  S
|---15---13-------|---15-18-15-13-20-18-15-13-18-13-15-13-13-15-13-15----|
|-----------------|------------------------------------------------------|
|-----------------|------------------------------------------------------|
|-----------------|------------------------------------------------------|
|-----------------|------------------------------------------------------|
|-----------------|------------------------------------------------------|
|
| W                 W
|-----------------|------------------------------------------------------|
|-----------------|------------------------------------------------------|
|-----------------|------------------------------------------------------|
|-6---------------|-3----------------------------------------------------|


Duration Legend
---------------
W - whole; H - half; Q - quarter; E - 8th; S - 16th; T - 32nd; X - 64th; a - acciaccatura
+ - note tied to previous; . - note dotted; .. - note double dotted
Uncapitalized letters represent notes that are staccato (1/2 duration)
Irregular groupings are notated above the duration line
Duration letters will always appear directly above the note/fret number it represents the
duration for.  Duration letters with no fret number below them represent rests.  Multi-
bar rests are notated in the form Wxn, where n is the number of bars to rest for.  Low
melody durations appear below the staff

Tablature Legend
----------------
 h   - hammer-on
 p   - pull-off
 b   - bend
 pb  - pre-bend
 r   - bend release (if no number after the r, then release immediately)
 /\  - slide into or out of (from/to "nowhere")
 s   - legato slide
 S   - shift slide
  - natural harmonic
[n]  - artificial harmonic
n(n) - tapped harmonic
 ~   - vibrato
 tr  - trill
 T   - tap
 TP  - trem. picking
 PM  - palm muting
\n/  - tremolo bar dip; n = amount to dip
 \n  - tremolo bar down
 n/  - tremolo bar up
/n\  - tremolo bar inverted dip
 =   - hold bend; also acts as connecting device for hammers/pulls
 <>  - volume swell (louder/softer)
 x   - on rhythm slash represents muted slash
 o   - on rhythm slash represents single note slash

Misc Legend
-----------
 |  - bar
||  - double bar
||o - repeat start
o|| - repeat end
*|  - double bar (ending)
 :  - bar (freetime)
 $  - Segno
 &  - Coda
Tempo markers -  = BPM(8/16=s8/s16), where s8 = swing 8ths, s16 = swing 16ths


***************************************************************************************
* Generated using Power Tab Editor by Brad Larsen - http://powertab.guitarnetwork.org *
***************************************************************************************
Tap to rate this tab
# A B C D E F G H I J K L M N O P Q R S T U V W X Y Z