Song name
# A B C D E F G H I J K L M N O P Q R S T U V W X Y Z

Misc Unsigned Bands - Knights Of Suburbia - Tombstone tab

Tombstone
Knights of Suburbia
2007

Lead guitar- Tim Foley
Rhythm guitar- Tim Foley
Vocals-Christian Chiakulas and Thomas Gumbel

Tuning
Eb
Bb
Gb
Db
Ab
Eb

Intro(acoustic guitar(standard tuning))

     ~    ~                            
|------------------0----------------------|
|----0----0----0---0----------------------|
|---2----2----0-0--2----------------------|
|--2----0----0-----2----------------------|
|-0----0----0------0----------------------|
|------------------x----------------------|


Verse (repeat "x" times)
|-------------------------------------|
|---1---3---1---0h1-------------------|
|---2---2---2---2---------------------|
|--2---2---2---2----------------------|
|-0---0---0---0-----------------------|
|-------------------------------------|

Fill
|-------------------------------------|
|-13~--15~--13~--12~------------------|
|-------------------------------------|
|-------------------------------------|
|-------------------------------------|
|-------------------------------------|
Bridge btwn verses 
strum chords 4 times 
|----------------|---------------------|
|--1----3----0h1-|----1----------------|
|--2----2----2---|----2----------------|
|--2----2----2---|----2----------------|
|--0----0----0---|----0----------------|
|----------------|---------------------|
Outro pick slide into:              x8
|-------------------------------------|
|------1-----3-----1-----0------------|
|------2-----2-----2-----2------------|
|------2-----2-----2-----2------------|
|--00000-00000-00000-00000------------|
|-------------------------------------|
                                      x1
|---------------------------------------|
|---------------------------------------|
|---------------------------------------|
|------2-----2-----5-----5--------------|
|--00000-00000-33333-33333-----5-----5--|
|--------------------------33333-33333--|
                                    x1
|-------------------------------------|
|-------------------------------------|
|-------------------------------------|
|-----2-----2-----5-----5-----7-----7-|
|-00000-00000-33333-33333-55555-55555-|
|-------------------------------------|
                                     x1
|-------------------------------------|
|--------------------3-----1-----0----|
|--------------------2-----2-----2----|
|-99-77-55-----2-----2-----2-----2----|
|-77-55-33-00000-00000-00000-00000----|
|-------------------------------------|
                                     x1
|-------------------------------------|
|-------------------------------------|
|----------------2-2-------2----------|
|-----2-----2----2-2-------2----------|
|-00000-00000----0-0-------0----------|
|-------------------------------------|

Tap to rate this tab
 
# A B C D E F G H I J K L M N O P Q R S T U V W X Y Z