Song name
# A B C D E F G H I J K L M N O P Q R S T U V W X Y Z

Misc Unsigned Bands - Tripped And Falling - In Tears And Bad Endings Acoustic tab

The greatest TAF song yet....

INTRO:
e---------------------------------------------------------------|
B---------------------------------------------------------------|
G------0------------0-----------0------------0------------------|
D---0----0--0----0----0--0---0----0--0----0---------------------|
A--9-9----9-----7-7----7----5-5----5-----5-5--------------------|
E-7------------5-----------3------------2-----------------------|(X2)

Verse:
Part 1
-5e--------------------------------------------------------------------|
B----------------------------------------------------------------------|
G----------------------------------------------------------------------|
D-9------7---------5---------------------------------------------------|
A-9------7---------5---------------------------------------------------|
E-7-x5--5-x5-----3-X10-------------------------------------------------|(X4)(Down Strokes)

“Dear Faith Im coming.....Will you carry me away?”

Part 2

e--------------------|
B--------------------|
G--------------------|
D-9-------5-----7----|
A-9-------5-----7----|
E-7-x10--3-x5--5-x5--|(x2)(moderate down strokes)

“So bitter now as.....this change in destiny.”
Part 3

e-----------------|
B-----------------|
G-----------------|
D-5----9----7-----|
A-5----9----7-----|
E-3-x8-7-x4-5-x4--|(x2) (moderate down strokes)

“And I wait.….it tastes so bittersweet.”

Part 4

e------------------|
B------------------|
G------------------|
D-5-----9----7-----|
A-5-----9----7-----|
E-3-x10-7-x6-5-x6--|(x3) (moderate down strokes)

“And the agony.….to die in self defeat.”

Part 5 (the reason I put this differently is because the timing is different for this part)

(a) “And when tomorrow comes”

D-5-----------------|
A-5-----------------|
E-3-----------------| (for the duration of that line)

(b) “If I don't wake with tears up on my face”

D-9--------------------7------------------------5-|
A-9--------------------7------------------------5-|
E-7--------------------5------------------------3-| (continuous moderate down strokes)

© “Have I let you down”

D-5-----------------|
A-5-----------------|
E-3-----------------| (you continue the strumming of this chord from the line before)

(d) “Or have you only let me go”

D-9-----------7---------------5-|
A-9-----------7---------------5-|
E-7-----------5---------------3-| (chords are continuously strummed )

Part 6

“And I cry for you, and I cry for you. And I’ll cry for you, on weakened knees. Guess 
is what you decided for me.”


D-5---------------9---------------------5----------9-|
A-5---------------9---------------------5----------9-|
E-3---------------7---------------------3----------7-|

"And the ending feels.             like broken glass."

D-5---------------9---------------------5----------9-|
A-5---------------9---------------------5----------9-|
E-3---------------7---------------------3----------7-|

"That cuts my heart,               I'm folding now into my arms"

D-5------------------------------------9-|
A-5------------------------------------9-|
E-3------------------------------------7-|

"And in my solice i'm dying for you(for you)"


That’s it. I'm pretty sure.Enjoy it and Rock on!!!
Tap to rate this tab
 
# A B C D E F G H I J K L M N O P Q R S T U V W X Y Z