Guitaretab - guitar tabs
Song name
# A B C D E F G H I J K L M N O P Q R S T U V W X Y Z

Misc Unsigned Bands - Kill The Captain - City Of Ruins tab

This tab is right... I know this because I wrote the song! lol the song is on our myspace
www.myspace.com/killthecaptainktc

I HOPE YOU ENJOY IT!!

Kill the captain: City Of Ruins

Sam Bettley: guitar

D-----------------------------------------------------------|
A--0-h5p0-0-h7p0-0-h8p0-0-h7p0-0-h10p0-0-h8p0-0-h7p0-0-h8p0-|
F-----------------------------------------------------------|
C-----------------------------------------------------------|
G-----------------------------------------------------------|
C-----------------------------------------------------------|

D-----------------------------------------------------------|
A--0-h5p0-0-h7p0-0-h8p0-0-h7p0-0-5h7p5h8p7p5----------------|
F--------------------------------------------8--------------|
C-----------------------------------------------------------|
G-----------------------------------------------------------|
C-----------------------------------------------------------|


D-----------------------------------------------------------|
A--0-h5p0-0-h7p0-0-h8p0-0-h7p0-0-h10p0-0-h8p0-0-h7p0-0-h8p0-|
F-----------------------------------------------------------|
C-----------------------------------------------------------|
G-----------------------------------------------------------|
C-----------------------------------------------------------|

D-----------------------------------------------------------|
A--0-h5p0-0-h7p0-0-h8p0-0-h7p0-0-5h7p5h8p7p5----------------|
F--------------------------------------------5--------------|
C-----------------------------------------------------------|
G-----------------------------------------------------------|
C-----------------------------------------------------------|

D-----------------------------------------------------------|
A--0-h5p0-0-h7p0-0-h8p0-0-h7p0-0-h10p0-0-h8p0-0-h7p0-0-h8p0-|
F-----------------------------------------------------------|
C-----------------------------------------------------------|
G-----------------------------------------------------------|
C-----------------------------------------------------------|

D-----------------------------------------------------------|
A--0-h5p0-0-h7p0-0-h8p0-0-h7p0-0-5h7p5h8p7p5----------------|
F--------------------------------------------8--------------|
C-----------------------------------------------------------|
G-----------------------------------------------------------|
C-----------------------------------------------------------|


D-----------------------------------------------------------|
A--0-h5p0-0-h7p0-0-h8p0-0-h7p0-0-h10p0-0-h8p0-0-h7p0-0-h8p0-|
F-----------------------------------------------------------|
C-----------------------------------------------------------|
G-----------------------------------------------------------|
C-----------------------------------------------------------|

D----------------------------------5h7p5h8p7p5---------------------------|
A--0-h5p0-0-h7p0-0-h8p0-0-h7p0-0--------------5h7p5h8p7p5----------------|
F--------------------------------------------------------5h7p5h8p7p5-7-8-|
C------------------------------------------------------------------------|
G------------------------------------------------------------------------|
C------------------------------------------------------------------------|

FIRST VERSE

D------------------------------------------------------------------------|
A------------------------------------------------------------------------|
F--9---------------10---------------9---------------9\8---8\5---5/8------|
C------------------------------------------------------------------------| X4
G--7---------------8----------------7---------------7\6---6\3---3/6------|
C-----0-000-0-0-0------0-000-0-0-0-----0-000-0-0-0------0-----0----------|


ON THE FOURTH TIME THROUGH THE VERSE:
D------------------------------------------------------------------------|
A------------------------------------------------------------------------|
F--9\8---8\5---5/8--9\8---8\5---5/8--9\8---8\5---5/8--9\8---8\5---5--4~~-|
C------------------------------------------------------------------------|
G--7\6---6\3---3/6--7\6---6\3---3/6--7\6---6\3---3/6--7\6---6\3---3--2~~-|
C------0-----0----------0-----0----------0-----0----------0-----0--------|


SOLO

D-----------------------------------------------------------------------|
A-----------------------------------------------------------------------|
F-----------------------------------------------------------------------|
C-----------------------------------------------------------------------|
G--2~~------------10~~------------5~~------------7777777788888888-------|
C--2~~------------10~~------------5~~------------7777777788888888-------|

D---------------------------------------------------------14h15h16h17-17~-|
A-----------------------------------15h16h17h1816h17h18h19----------------|
F-------------12h13h14h1513h14h15h16--------------------------------------|
C--12h13h14h15------------------------------------------------------------|
G-------------------------------------------------------------------------|
C-------------------------------------------------------------------------|

D--19-17-15-14-15-14-17-15-14-12~---|
A-----------------------------------|
F-----------------------------------|
C-----------------------------------|
G-----------------------------------|
C-----------------------------------|


D-------------------------------------------------------------------------|
A-------------------------------------------------------------------------|
F--------------------------------------12h13p12--10--9--7----6~-----------|
C-------------12h13h14h1514~12h13h14h15-----------------------------------|
G--12h13h14h15------------------------------------------------------------|
C-------------------------------------------------------------------------|

D-----------------------------------|
A--10--11--12--13--13---------------|
F--12--13--14--15--15^--------------|
C-----------------------------------|
G-----------------------------------|
C-----------------------------------|


CHORUS!

D-------------------------------------------------------------------------|
A-------------------------------------------------------------------------|
F-------2-----------------------------------------------------------------|
C--0~---2-----------------------8~---12-8-10-8----------------------------|
G--0~---0-0-3-0-5-0-3-0-2-3-2-0-8~-------------12-8-10-8-10-12-10-8-------|
C--0~-----0-3-0-5-0-3-0-2-3-2-0-8~----------------------------------------|


D-------------------------------------------------------------------------|
A-------------------------------------------------------------------------|
F-------2-----------------------------------------------------------------|
C--0~---2-----------------------8~---12-8-10-8------15-15-14--------------|
G--0~---0-0-3-0-5-0-3-0-2-3-2-0-8~-------------12-8-----------------------|
C--0~-----0-3-0-5-0-3-0-2-3-2-0-8~----------------------------------------|


D-------------------------------------------------------------------------|
A-------------------------------------------------------------------------|
F-------2-----------------------------------------------------------------|
C--0~---2-----------------------8~---12-8-10-8----------------------------|
G--0~---0-0-3-0-5-0-3-0-2-3-2-0-8~-------------12-8-10-8-10-12-10-8-------|
C--0~-----0-3-0-5-0-3-0-2-3-2-0-8~----------------------------------------|


D-------------------------------------------------------------------------|
A-------------------------------------------------------------------------|
F-------2-----------------------------------------------------------------|
C--0~---2-----------------------8~---12-8-10-8------15-17-14--------------|
G--0~---0-0-3-0-5-0-3-0-2-3-2-0-8~-------------12-8-----------------------|
C--0~-----0-3-0-5-0-3-0-2-3-2-0-8~----------------------------------------|


PRE SECOND VERSE
[ Tab from: http://www.guitaretab.com/m/misc-unsigned-bands/101077.html ]
D-----------------------------------|
A-----------------------------------|
F--10~-----9~------8~---------------|
C-----------------------------------|
G--8~~-----7~------6~---------------|
C-----------------------------------|


SECOND VERSE

D--------------------------------------------------------------|
A--------------------------------------------------------------|
F--7------------10--9---7---5/7--------------------------------|
C--------------------------------------------------------------|
G--5------------8---7---5---3/5---------------------------3*---|
C-----0-0-0-000------------------3--3-3-3-333-5-3-6-5-3-3------|


D--------------------------------------------------------------|
A--------------------------------------------------------------|
F--7------------10--9---7---5/7---12-1212121212---13-12-10-7~--|
C--------------------------------------------------------------|
G--5------------8---7---5---3/5---10-1010101010----------------|
C-----0-0-0-000------------------------------------------------|


D--------------------------------------------------------------|
A--------------------------------------------------------------|
F--7------------10--9---7---5/7--------------------------------|
C--------------------------------------------------------------|
G--5------------8---7---5---3/5---------------------------3*---|
C-----0-0-0-000------------------3--3-3-3-333-5-3-6-5-3-3------|


D--------------------------------------------------------------|
A--------------------------------------------------------------|
F--7------------10--9---7---5/7---12-1212121212---13-12-10-7~--|
C--------------------------------------------------------------|
G--5------------8---7---5---3/5---10-1010101010----------------|
C-----0-0-0-000------------------------------------------------|


CLEAN PART

D--------0h1p0------------------------------------------------------------3-|
A------3-------3---3--------0h1p0--------------1h3p1--------------3---------|
F----2-----------2--------2-------2---2------0-------0---0------0-------0---|
C--0--------------------2-----------2------2-----------2------0-------2-----|
G---------------------0------------------3------------------2-------3-------|
C---------------------------------------------------------------------------|

D--------0h1p0------------------------------------------------------------3-|
A------3-------3---3--------0h1p0--------------1h3p1--------------3---------|
F----2-----------2--------2-------2---2------0-------0---0------0-------0---|
C--0--------------------2-----------2------2-----------2------0-------2-----|
G---------------------0------------------3------------------2-------3-------|
C---------------------------------------------------------------------------|

D--111-111-11--000-000-00--000-000-00--0000-3333------|
A--333-333-33--333-333-33--111-111-11--3333-3333------|
F--222-222-22--222-222-22--000-000-00--0000-0000------|
C--000-000-00--222-222-22--222-222-22--0000-2222------|
G--000-000-00--000-000-00--333-333-33--2222-3333------|
C-----------------------------------------------------|


BREAKDOWN PART 1

D----------------------------------------------------------|
A----------------------------------------------------------|
F----------------------------------------------------------|
C----------------------------------------------------------|
G--0------3p1---------3*----------0------3p1---------3*^~--|
C--0--0-0-3p1-0-0-0-0----0-0-3^---0--0-0-3p1-0-0-0-0-------|

D----------------------------------------------------------|
A----------------------------------------------------------|
F----------------------------------------------------5'^~--| x4
C----------------------------------------------------------|
G--0------3p1---------3*----------0------3p1---------------|
C--0--0-0-3p1-0-0-0-0----0-0-3^---0--0-0-3p1-0-0-0-0-------|


BREAKDOWN PART 2

D-----------------------------------|
A-----------------------------------|
F-----------------------------------|
C-----------------------------------|
G--------------------------1111111--|
C--000-000-000-000-000-000----------|


D-----------------------------12h13h12-------------|
A---------------------------13--------13-----------|
F-------------------------14-----------14----------|
C-----------------------14--------------14---------|
G------------------12h15-----------------15-12-13--|
C--000-000-000-000----------(^SWEEP^)--------------|


D-----------------------------------|
A-----------------------------------|
F-----------------------------------|
C-----------------------------------|
G--------------------------1111111--|
C--000-000-000-000-000-000----------|


D-----------------------------12h13h12----------------|
A---------------------------13--------13--------------|
F-------------------------14-----------14-------------|
C-----------------------14--------------14------------|
G------------------12h15-----------------15-12-15-13--|
C--000-000-000-000----------(^SWEEP^)-----------------|


D-----------------------------------|
A-----------------------------------|
F-----------------------------------|
C-----------------------------------|
G--------------------------1111111--|
C--000-000-000-000-000-000----------|


D-----------------------------12h13h12-------------|
A---------------------------13--------13-----------|
F-------------------------14-----------14----------|
C-----------------------14--------------14---------|
G------------------12h15-----------------15-12-13--|
C--000-000-000-000----------(^SWEEP^)--------------|


D-----------------------------------|
A-----------------------------------|
F-----------------------------------|
C-----------------------------------|
G--------------------------1111111--|
C--000-000-000-000-000-000----------|


D-----------------------------12h13h12----------------|
A---------------------------13--------13--------------|
F-------------------------14-----------14-------------|
C-----------------------14--------------14------------|
G------------------12h15-----------------15-12-15-13--|
C--000-000-000-000----------(^SWEEP^)-----------------|


CHORUS!

D-------------------------------------------------------------------------|
A-------------------------------------------------------------------------|
F-------2-----------------------------------------------------------------|
C--0~---2-----------------------8~---12-8-10-8----------------------------|
G--0~---0-0-3-0-5-0-3-0-2-3-2-0-8~-------------12-8-10-8-10-12-10-8-------|
C--0~-----0-3-0-5-0-3-0-2-3-2-0-8~----------------------------------------|


D-------------------------------------------------------------------------|
A-------------------------------------------------------------------------|
F-------2-----------------------------------------------------------------|
C--0~---2-----------------------8~---12-8-10-8------15-15-14--------------|
G--0~---0-0-3-0-5-0-3-0-2-3-2-0-8~-------------12-8-----------------------|
C--0~-----0-3-0-5-0-3-0-2-3-2-0-8~----------------------------------------|


D-------------------------------------------------------------------------|
A-------------------------------------------------------------------------|
F-------2-----------------------------------------------------------------|
C--0~---2-----------------------8~---12-8-10-8----------------------------|
G--0~---0-0-3-0-5-0-3-0-2-3-2-0-8~-------------12-8-10-8-10-12-10-8-------|
C--0~-----0-3-0-5-0-3-0-2-3-2-0-8~----------------------------------------|


D-------------------------------------------------------------------------|
A-------------------------------------------------------------------------|
F-------2-----------------------------------------------------------------|
C--0~---2-----------------------8~---12-8-10-8------15-17-14~~~~~~--------|
G--0~---0-0-3-0-5-0-3-0-2-3-2-0-8~-------------12-8-----------------------|
C--0~-----0-3-0-5-0-3-0-2-3-2-0-8~----------------------------------------|


OUTRO

D-----------------|
A-----------------|
F-----------------|
C-----------------|
G-----------------|
C--0000431001340--|

Tabbed by Sam Bettley
Related for Kill The Captain - City Of Ruins tab
Advertisement will be closed in 10 seconds