Song name
# A B C D E F G H I J K L M N O P Q R S T U V W X Y Z

Misc Unsigned Bands - Axel - Budakai tab

INTRO/VERSE


e|------------------------------------------------------------------|
B|------------------------------------------------------------------|
G|---------------8--8--8--8--8--8--9--9--9--9--9--9-----------------|
D|-9-9-9--9-9-9--8--8--8--8--8--8--9--9--9--9--9--9--9-9-9--9-9-9---|  X5
A|-9-9-9--9-9-9--6--6--6--6--6--6--7--7--7--7--7--7--9-9-9--9-9-9---|
E|-7-7-7--7-7-7-(6)(6)(6)(6)(6)(6)(7)(7)(7)(7)(7)(7)-7-7-7--7-7-7---|

CHORUS

e|-----------------------------|                e|-----|
B|-----------------------------|                B|-----|
G|-9--9--9--9----7--7--7--7----|                G|-----|
D|-9--9--9--9----7--7--7--7----|  X4  and then..D|-5---|  X8
A|-7--7--7--7----5--5--5--5----|                A|-5---|
E|(7)(7)(7)(7)--(5)(5)(5)(5)---|                E|-3---|


BRIDGE

e|-------------------------------------------|
B|-------------------------------------------|
G|-9--9--9--9--9--8--8--8--8--8--------------|
D|-9--9--9--9--9--8--8--8--8--8--5-5-5-5-5---|  x2
A|-7--7--7--7--7--6--6--6--6--6--5-5-5-5-5---|
E|(7)(7)(7)(7)(7)(6)(6)(6)(6)(6)-3-3-3-3-3---|



ORDER:

INTRO/VERSE
CHORUS
INTRO/VERSE 2
CHORUS 2
BRIDGE
VERSE 3


Tap to rate this tab
# A B C D E F G H I J K L M N O P Q R S T U V W X Y Z