Song name
# A B C D E F G H I J K L M N O P Q R S T U V W X Y Z

Misc Unsigned Bands - Of Fate And Chance - A Liars Monologue tab

Artist - Of Fate And Chance
Song - A Liar's Monologue
Album - A Liar's Monologue EP
Tuning - Standard (EADGBe low to high)

Okay, this song is pretty easy, and really fun to play.
I'm certain it's all here.
*This time I'm updating it, I got these parts from Sean himself (well, my friend did), 
any corrections made have made this tab 100% right, played the OFaC way.

The chorus is in 4/4, but the rest of the song is in 3/4
Key
#* - natural harmonic
PM.. - palm mute
= - let ring


Verse 1 (both guitars)
e|------------------------------------------------------------|
B|o----------------------------------------------------------o|
G|------------------------------------------------------------|
D|---10-10----------10-10----------4-4----------5-5-----------|Play 5x
A|o--10-10----------10-10----------5-5---555-5--7-7---777-7--o|
E|----8--8---888-8---8--8---888-8-----------------------------|
PM           ... .          ... .        ... .        ... .

e|----------------------------------------|
B|----------------------------------------|
G|----------------------------------------|
D|------------------------4----4----5-5-5-|
A|-10----------10---10--5-5--5-5--5-7-7-7-|
E|-8-8-8-8-8-8--8--8-8--------------------|
PM   . . . . .     .    .    .    .


Chorus (listen to the song for strumming variations)
Okay, on the first playthrough and 2nd repeat (1 and 3), gtr 2 plays what's
indicated for it. On the first repeat (2), play the same as guitar 1.

e|------------------------------------------------------------------------|
B|o----------------------------------------------------------------------o|Gtr. 1
G|------------------------------------------------------------------------|(and gtr. 2 on 2)
D|---2---2-2-2-2-2-2-10-10---10-10---10---4-4-4-4-4-4-4-4---5-7-9-7-5-0---|Play 3x
A|o--2---2-2-2-2-2-2-10-10---10-10---10---5-5-5-5-5-5-5-5-7--------------o|
E|---0---0-0-0-0-0-0--8--8----8--8----8-----------------------------------|
 |
e|------------------------------------------------------------------------|
B|o----------------------------------------------------------------------o| Gtr. 2
G|----------------------------------------------------------4-5-7-5-4-----|
D|---2---2-2-2-2-2-2-10-10---10-10---10---4-4-4-4-4-4-4-4-5-----------4---|Play on
A|o--2---2-2-2-2-2-2-10-10---10-10---10---5-5-5-5-5-5-5-5----------------o|repeats
E|---0---0-0-0-0-0-0--8--8----8--8----8-----------------------------------|1 and 3


Verse 2
e|------------------------------------------------------------|
B|o----------------------------------------------------------o|
G|------------------------------------------------------------|
D|---10-10----------10-10----------4-4----------5-5-----------|Play 2x
A|o--10-10----------10-10----------5-5---555-5--7-7---777-7--o|
E|----8--8---888-8---8--8---888-8-----------------------------|
PM           ... .          ... .        ... .        ... .

e|------------------------------------------------------------|
B|o----------------------------------------------------------o|
G|------------------------------------------------------------|Gtr. 1
D|---10-10----------10-10----------4-4----------5-5-----------|Play 2x
A|o--10-10----------10-10----------5-5---555-5--7-7---777-7--o|
E|----8--8---888-8---8--8---888-8-----------------------------|
PM           ... .          ... .        ... .        ... .
 |
e|----------------------------------------------------------------------|
B|o--------------------------------------------------------------------o|
G|--5*-5*-----------5*-5*-----------------------------------------------| Guitar 2
D|-------4*-4*-4*-4*-----4*-4*-4*-4*-5*-5*-7*-7*-----5*-5*-7*-7*--------| Play 2x
A|o---------------------------------------------7*-7*-----------7*-7*--o|
E|----------------------------------------------------------------------|


e|--------------------------------------------------------|
B|--------------------------------------------------------|
G|--------------------------------------------------------|
D|-10-10----------10-10----------4-4----------5-5---------|
A|-10-10----------10-10----------5-5---555-5--7-7---777-7-|
E|--8--8---888-8---8--8---888-8---------------------------|
 |
e|--------------------------------------------------------|
B|--------------------------------------------------------|
G|--------------------------------------------------------|
D|------------9--------------9-------10p9---------10---9--|
A|-------9h10-----------9h10--------------10--------------|
E|--------------------------------------------------------|


e|-----------------------------------------------------|
B|-----------------------------------------------------|
G|-----------------------------------------------------|
D|-10-10----------10-10----------4-4----------5-5-5-5\-|
A|-10-10----------10-10----------5-5---555-5--7-7-7-7\-|
E|--8--8---888-8---8--8---888-8------------------------|
 |
e|-----------------------------------------------------|
B|-----------------------------------------------------|
G|--------------------------------------------9-9-9-9\-|
D|------------9--------------9-------10p9-----9-9-9-9\-|
A|-------9h10-----------9h10--------------10--7-7-7-7\-|
E|-----------------------------------------------------|


Play Chorus


Pre-Bridge
e|-------------------------------------|
B|-------------------------------------|
G|-5=======----------5=======----------|
D|-5=======-2=======-5=======-2=======-|
A|-3=======-2=======-3=======-2=======-|
E|----------0=======----------0=======-|


Bridge
e|---------------------------------------------------------|
B|o-------------------------------------------------------o|
G|---------------------------------------0-----------0-----|Play 6x
D|-------------0-------------0-----4---4---4---4---4---4---|
A|o----10---10-------10---10-----5---5-------5---5--------o|
E|---8----8--------8----8----------------------------------|


Interlude
e|----------------|
B|----------------|
G|----------------| both guitars
D|----------------|
A|-5--3-2-5-3-2-0-|
E|----------------|

the WHOLE thing here plays 3 times through
e|-----------------------------------------------|
B|o----------------------------------------------|
G|-----------------------------------------------| Both Guitars
D|---2-2---222-2-2---222-2-2---222-2---5-7-9-7-5-|
A|o--2-2---222-2-2---222-2-2---222-2-7-----------|
E|---0-0---000-0-0---000-0-0---000-0-------------|

e|-----------------------------------------------------------|
B|----------------------------------------------------------o|
G|--------------------------------------------------4-5-4----| Both Guitars
D|----------------------------------------------4-5-------5--|
A|-10-10--101010-10-10--101010-10-10--101010-10-------------o|
E|--8--8---8-8-8--8--8---8-8-8--8--8---8-8-8--8--------------|


Post-Interlude
e|-------------------------------------|
B|-------------------------------------|
G|-5=======----------5==-5*==----------|
D|-5=======-2=======-5==------2=======-|
A|-3=======-2=======-3==------2=======-|
E|----------0=======----------0=======-|


Chorus (whole thing 2x)

That's it! You can find OFaC at www.purevolume.com/offateandchance OR on myspace. Have fun!
Tap to rate this tab
# A B C D E F G H I J K L M N O P Q R S T U V W X Y Z