Song name
# A B C D E F G H I J K L M N O P Q R S T U V W X Y Z

Misc Unsigned Bands - The Unregenerate - Untitled tab

This is "Untitled" by The Unregenerate. Exact tabs. (finger picking)

  G                G                Cadd9            C
e|----------------|----------------|----------------|----------------|
B|3-----3-----3---|3-----3-----3---|3-----3-----3---|1-----1-----1---|
G|----0---0-----0-|----0---0-----0-|----0---0-----0-|----0---0-----0-|
D|--0-------0---0-|--0-------0---0-|--2-------2---2-|--2-------2---2-|
A|----------------|----------------|3---------------|3---------------|
E|3---------------|3---------------|----------------|----------------|

  Em               Em               Am               Am
e|----------------|----------------|----------------|----------------|
B|0-----0-----0---|0-----0-----0---|1-----1-----1---|1-----1-----1---|
G|----0---0-----0-|----0---0-----0-|----2---2-----2-|----2---2-----2-|
D|--2-------2---2-|--2-------2---2-|--2-------2---2-|--2-------2---2-|
A|2---------------|2---------------|0---------------|0---------------|
E|----------------|----------------|----------------|----------------|

  Em               Em               Am               C
e|----------------|----------------|----------------|----------------|
B|0-----0-----0---|0-----0-----0---|1-----1-----1---|1-----1-----1---|
G|----0---0-----0-|----0---0-----0-|----2---2-----2-|----0---0-----0-|
D|--2-------2---2-|--2-------2---2-|--2-------2---2-|--2-------2---2-|
A|2---------------|2---------------|0---------------|3---------------|
E|----------------|----------------|----------------|----------------|

ALL TIMES 2



www.myspace.com/theunregenerate
Tap to rate this tab
 
# A B C D E F G H I J K L M N O P Q R S T U V W X Y Z