Song name
# A B C D E F G H I J K L M N O P Q R S T U V W X Y Z

Misc Unsigned Bands - Hoopus - Day Of The Dead tab

-------------------------------------------------------------------------------
			     Day of the Dead - Hoopus
-------------------------------------------------------------------------------
Tabbed by: Max
Email:Maxisdead@gmail.com

Tuning:D A D G B e

Intro:
e|-------------------------------------------------------------------|
B|-------------------------------------------------------------------|
G|-------------------------------------------------------------------|
D|-------------------------------------------------------------------|
A|-------------------------------------------------------------------|
D|-0000000000000000333333333333333355555555555555556666666666666666--|
   ................................................................
                                P.M.

e|------------------------------------------------------------------------|
B|------------------------------------------------------------------------|
G|------------------------------------------------------------------------|
D|------------------------------------------------------------------------|
A|------------------------------------------------------------------------|
D|-000000000000000033333333333333335555555555555555666655556666-8b(10)8b--|
   ............................................................
                              P.M.
Main Riff
e|------------------------------------------------------------|x4
B|------------------------------------------------------------|
G|------------------------------------------------------------|
D|------------------------------------------------------------|
A|--5h8p5-----5h8p5-----5h8p5-----8-7-5-----------------------|
D|----- --0-0-------0-0-------0-0-----------------------------|
          . .       . .       . .

e|-------------------------------------------------------|
B|-------------------------------------------------------|
G|-------------------------------------------------------|
D|--0---3---5---8----------------------------------------|
A|--0---3---5---8----------------------------------------|
D|--0---3---5---8----------------------------------------|

Bridge:   *W H O L E  B R I D G E  I S  T R I P I L E T S*
e|-----------------------------------------------------|\
B|-----------------------------------------------------| \
G|-----------------------------------------------------|  \
D|-----------------------------------------------------|    |
A|-----------------------------------------------------|    |
D|--0-5-8-0-5-8-0-5-8-0-5-8-0-5-8-0-5-8-0-5-8-0-5-8----|    |

e|-----------------------------------------------------|    |T
B|-----------------------------------------------------|    |R
G|-----------------------------------------------------|    |I
D|-----------------------------------------------------|    |P
A|-----------------------------------------------------|    |I
D|--0-6-9-0-6-9-0-6-9-0-6-9-0-6-9-0-6-9-0-6-9-0-6-9----|    |L

e|-----------------------------------------------------|    |E
B|-----------------------------------------------------|    |T
G|-----------------------------------------------------|    |S
D|-----------------------------------------------------|    |
A|-----------------------------------------------------|    |
D|--0-5-8-0-5-8-0-5-8-0-5-8-0-5-8-0-5-8-0-5-8-0-5-8----|    |

e|-----------------------------------------------------|    |
B|-----------------------------------------------------|    |
G|-----------------------------------------------------|    |
D|-----------------------------------------------------|   /
A|-----------------------------------------------------|  /
D|--0-6-9-0-5-8-0-4-7-0-3-6-0-5-8-0-4-7-0-3-6-2~-------| /

Drum Fill

Main Riff:
e|------------------------------------------------------------|x4
B|------------------------------------------------------------|
G|------------------------------------------------------------|
D|------------------------------------------------------------|
A|--5h8p5-----5h8p5-----5h8p5-----8-7-5-----------------------|
D|--------0-0-------0-0-------0-0-----------------------------|
          . .       . .       . .

Breakdown:
e|--------------------------------------------------------------------|
B|--------------------------------------------------------------------|
G|--------------------------------------------------------------------|
D|--------------------------------------------------------------------|
A|--------------------------------------------------------------------|
D|--000000---000000---000000000000---000000---000000------------------|
    1+a2+a3+a4+a1+a2+a3+a4+a1+a2+a3+a4+a1+a2+a3+a4+a


Do that until song ends.

Enjoy, HOOPUS 4 life

| /  slide up
| \  slide down
| h  hammer-on
| p  pull-off
| ~  vibrato
| +  harmonic
| x  Mute note
===============================================================================
Tap to rate this tab
# A B C D E F G H I J K L M N O P Q R S T U V W X Y Z